Oops, an error
Loading. Please wait.

Fly Farm Blues tab

version 1
version 1

Whole song

40,346 views 51 this week
8 commentsread comments
1 2 3 4 5
x 15
add to favorites
×
Save as Personal and add changes to this tab that will be seen only by you. Learn more ›
×
You can save this tab as Personal to edit and correct it or add notes. All changes will be seen only by you. Learn more »
launch autoscroll
font size
0
reset
how to read this tab
guitar tuner
edit
Autoscroll
slow
fast
+/-
esc
set tempo
stop
This is how to play this song in standard tuning hope you like the tab!


The song starts with Jack playing open E then he mutes the string (X) and plays the riff 
the song, back to Open E and either G barre or open (G barre is easier to slide to).

E---------X-----------------------------------3-----------------------------|
B---------X-----------------------------------3-----------------------------|
G----1----X------------------------------1----4-----------------------------|
D----2----X------------------------------2----5-----------------------------|
A----2----X---------------5--------------2----5-----------------------------|
E---------X----------5s7------7---------------3-----------------------------|

Then he goes on to play A Barre or open to G and back
E---5-----3-----5-------------------------|
B---5-----3-----5-------------------------|
G---6-----4-----6-------------------------|
D---7-----5-----7-------------------------|
A---7-----5-----7-------------------------|
E---5-----3-----5-------------------------|

Then back to
E---------X-----------------------------------3-----------------------------|
B---------X-----------------------------------3-----------------------------|
G----1----X------------------------------1----4-----------------------------|
D----2----X------------------------------2----5-----------------------------|
A----2----X---------------5--------------2----5-----------------------------|
E---------X----------5s7------7---------------3-----------------------------|

He then goes on to play B A G E and then E G A and i don't know the name of the next 
so i will just tab it, then back to the main riff and the last chord is an E minor i think 
muted again.
E---7----5----3---------3----5----6--------------------------0----X---------|
B---7----5----3---------3----5----6--------------------------0----X---------|
G---8----6----4----1----4----6----7--------------------------0----X---------|
D---9----7----5----2----5----7----8--------------------------2----X---------|
A---9----7----5----2----5----7----8----------------5---------2----X---------|
E---7----5----3---------3----5----6--------5s7-----------7---0----X---------|


Anyway thats the order you can work out how many times yourself. Thanks for viewing!
SamStrat94 Ultimate guitar

            
            
Suggest correction
Creating personal tab
Creating personal tab
You can edit any tab online and save it as your Personal.

You can edit, replace or remove any tab part or add personal notes – all changes will be seen only by you.

Personal tabs can be accessed anytime from any device, even offline.
Learn more »
comments
print report bad tab
8 comments total. Showing first comments.
+5 reply
tukall 10 Jun 14, 2010 06:17 PM

Very nice indeed. Thanks so much. I'm a huge Jack White fan and just stumbled upon this on youtube. It was like striking gold...

+1 reply
SamStrat94 113 Jun 21, 2010 07:56 AM

Thank you very much, glad you liked the tab, and i'm a huge Jack White fan too!

+2 reply
xclairityx 50 Feb 17, 2011 05:13 AM

Sounds like the part where you slide from 5/7 on the e, then hit 7 on the A is wrong. it should be 5 on the A and 7 on the E. AT least, that's what it sounds like to me.

guest
You may want to rate the tab now too:
select rating
Wanna post a correction for this tab? Suggest correction