Oops, an error
Loading. Please wait.

Im Shakin Tab

version 1
version 1

Whole song

Interactive

24,074 views 18 this week
3 commentsread comments
1 2 3 4 5
x 13
add to favorites
launch autoscroll
font size
0
reset
how to read this tab
guitar tuner
Autoscroll
slow
fast
+/-
esc
set tempo
stop
Difficulty
novice
Basically the whole song goes like this. The same riff over and over. I am aware this is 
a cover, but I'm just going to label as most people will look for it.


e|---------------------------------------------------------------|
B|---------------------------------------------------------------|
G|---------------------------------------------------------------|
D|------------------------------5--------------------------------|
A|----5-7---7---5-7---7---5-7-----7------------------------------|
E|--7---------7---------7-----------7-0--------------------------|
Suggest correction
comments
print report bad tab
3 comments total.
0 reply
Frenchys 10 May 09, 2012 07:07 PM

This is the right tabs .

0 reply
tedandjakeok 10 Aug 12, 2013 10:25 AM

e|---------------------------------------------------------------|
B|---------------------------------------------------------------|
G|---------------------------------------------------------------|
D|------------------------------5--------------------------------|
A|----6-7---7---6-7---7---6-7-----7------------------------------|
E|--7---------7---------7-----------7-0--------------------------|
try this instead?

guest
You may want to rate the tab now too:
select rating
Wanna post a correction for this tab? Suggest correction