Oops, an error
Loading. Please wait.

Im Shakin Tab

version 2
version 2

Whole song

Interactive

78,048 views 48 this week
6 commentsread comments
1 2 3 4 5
accurate
x 22
add to favorites
launch autoscroll
font size
0
reset
how to read this tab
guitar tuner
Autoscroll
slow
fast
+/-
esc
set tempo
stop
Help us to improve Ultimate-Guitar.com Take our survey!
×
Difficulty
intermediate
Band: Jack white
Album: Blunderbuss
Song: I'm Shakin'
Tunning: Standard
Tabbed By: Ryonb ;)

|---------------------------------------|
|---------------------------------------|
|---------------------------------------|
|---0-2------0-2--------0-2---5p2-0-----| x2
|-2------0h2-------0h2------------------|
|-----------------------------------0---|

|-------------------|
|-------------------|
|---------1---------|
|---------2---------|
|---------2---------|
|---------0---------|
When your touching my hand and talk sweet talk, I got a knockin in my knees and a wabble 
to my walk. And Im tremlin'

|---------------------------------------|
|---------------------------------------|
|---------------------------------------|
|---0-2------0-2--------0-2---5p2-0-----|
|-2------0h2-------0h2------------------|
|-----------------------------------0---|
Thats right, you got me tremblin



|-------------------|
|-------------------|
|---------1---------|
|---------2---------|
|---------2---------|
|---------0---------|
When you take me in your arms and talk romance, my heart start doin that st.rita dance. 
And im ventin'

|---------------------------------------|
|---------------------------------------|
|---------------------------------------|
|---0-2------0-2--------0-2---5p2-0-----|
|-2------0h2-------0h2------------------|
|-----------------------------------0---|



|-----------------------------------|
|---------------------------2-------|
|---------1-----------------2-------|
|---------2-----------------2-------|
|---------2-----------------0-------|
|---------0-------------------------|
Early in the morning time. Late in the middle of the night



|-------------------------------------------------------------|
|---2---------------------------------------------------------|
|---2---------------------------------------------------------|
|---2--------------------------------------5------------------|
|---0--------------------------------------5------------------|
|------------------------------------------3------------------|
Whenever this chill comes over me, I wana hug with all my might, thats right. and Im sweatin'

|---------------------------------------|
|---------------------------------------|
|---------------------------------------| x2
|---0-2------0-2--------0-2---5p2-0-----|
|-2------0h2-------0h2------------------|
|-----------------------------------0---|


|-----------------------------------------------------|
|---------------------------------------------2-------|
|---------1-----------------------------------2-------|
|---------2-----------------------------------2-------|
|---------2-----------------------------------0-------|
|---------0-------------------------------------------|
A chill in a fever so Ive been told, Makes your head spin around and your feet run cold

|---------------------------------------|
|---------------------------------------|
|---------------------------------------|
|---0-2------0-2--------0-2---5p2-0-----|
|-2------0h2-------0h2------------------|
|-----------------------------------0---|



|-------------------------------------------------------------|
|-----------------------------------------------------2-------|
|---1-------------------------------------------------2-------|
|---2-------------------------------------------------2-------|
|---2-------------------------------------------------0-------|
|---0---------------------------------------------------------|
I feel like I been run right through the mill, And I can't move around and I can't stand 
still. Im Bo Diddley


|---------------------------------------|
|---------------------------------------|
|---------------------------------------| x2
|---0-2------0-2--------0-2---5p2-0-----|
|-2------0h2-------0h2------------------|
|-----------------------------------0---|


|-3-0---------3--------------------------------0----|
|-----3-0----------3b-3b-3b-3b-3b-3b-3b-3r-1--------|
|---------2-0--------------------------------2------|
|---------------------------------------------------|
|---------------------------------------------------|
|---------------------------------------------------|

|-5b-5b-5b-5-3---3------3-5b-5b-5b-5b-5b-5b-3-3--5b-5b-5b-5b-5b-5b-5b-3----|
|-------------5------5-------------------------------------------------5-5-|
|--------------------------------------------------------------------------|
|--------------------------------------------------------------------------|
|--------------------------------------------------------------------------|
|--------------------------------------------------------------------------|

|------------------------------------------|
|----------------------------------2-------|
|-----1----------------------------2-------|
|-----2----------------------------2-------|
|-----2----------------------------0-------|
|-----0------------------------------------|
Well Samson was a mighty good man. Strongest in his day

|----------------------------------------------------------------------|
|-----2----------------------------------------------------------------|
|-----2----------------------------------------------------------------|
|-----2---------------------------------------------5------------------|
|-----0---------------------------------------------5------------------|
|---------------------------------------------------3------------------|
 Then along came Delilah and clipped his wig. And it looks like you took me the same old way


|---------------------------------------|
|---------------------------------------|
|---------------------------------------| x2
|---0-2------0-2--------0-2---5p2-0-----|
|-2------0h2-------0h2------------------|
|-----------------------------------0---|


|----------------------------------------------|
|--------------------------------------2-------|
|---------1----------------------------2-------|
|---------2----------------------------2-------|
|---------2----------------------------0-------|
|---------0------------------------------------|
A ship rocks the ship on the sea. The wind blows the leaves in the tree


|--------------------------------------------------------------------------|
|----------2---------------------------------------------------------------|
|----------2---------------------------------------------------------------|
|----------2---------------------------------------------5-----------------|
|----------0---------------------------------------------5-----------------|
|--------------------------------------------------------3-----------------|
And I'm a nervous wreck and I'm all shook up, And that's what you're doin' to me right 
now. And I'm jumpin'


|---------------------------------------|
|---------------------------------------|
|---------------------------------------| x4
|---0-2------0-2--------0-2---5p2-0-----|
|-2------0h2-------0h2------------------|
|-----------------------------------0---|

|--------------|
|--------------|
|--------------|
|---0-2!-------|
|-2------------|
|--------------|
comments
print report bad tab
6 comments total. Showing first comments.
+1 reply
coreytaylor15 42 wrote on June 13 2012, 05:54 am

Awesome man. 5 stars.

+4 reply
sthoma 24 wrote on July 3 2012, 10:38 am

to me, the main riff sounds more like this:

|---------------------------------------|
|---------------------------------------|
|---------------------------0-----------|
|---1-2--2---1-2--2---1-2-----2---------| x2
|-2--------2--------2-----------2-------|
|---------------------------------0-----|

-2 reply
JoeFlips 1,395 wrote on September 7 2012, 03:26 pm

Yeah, I play it like this:

|---------------------------------------|
|---------------------------------------|
|---------------------------0-----------|
|---0-2--2---0-2--2---0-2-----2---------| x2
|-2--------2--------2-----------2-------|
|---------------------------------0-----|

I want to post or [tab]
guest
You may want to rate the tab now too:
select rating
Please do not post tabs as comments. Select "correction" instead!