Oops, an error
Loading. Please wait.

Im Shakin tab

version 4
version 4

Whole song

Interactive

47,785 views 123 this week
11 commentsread comments
1 2 3 4 5
x 59
add to favorites
×
Save as Personal and add changes to this tab that will be seen only by you. Learn more ›
×
You can save this tab as Personal to edit and correct it or add notes. All changes will be seen only by you. Learn more »
launch autoscroll
font size
0
reset
how to read this tab
guitar tuner
edit
Autoscroll
slow
fast
+/-
esc
set tempo
stop
e|---------------------------------------|
B|---------------------------------------|
G|------------------------------0--------|
D|---1-2---2--1-2----2----1-2-----2------|(x2)
A|-2--------2---------2-2----------2-----|
E|----------------------------------0----|

e|-------------------|
B|-------------------|
G|---------1---------|
D|---------2---------|
A|---------2---------|
E|---------0---------|
When you touch my hand and talk sweet talk, I got a knockin in my knees and a wabble 
to my walk. And I'm tremlin

e|---------------------------------------|
B|---------------------------------------|
G|------------------------------0--------|
D|---1-2---2--1-2----2---1-2-----2-------|
A|-2--------2---------2-----------2------|
E|----------------------------------0----|
Thats right, you got me shakin



e|-------------------|
B|-------------------|
G|---------1---------|
D|---------2---------|
A|---------2---------|
E|---------0---------|
When you take me in your arms and talk romance, my heart start doin that St.Vitus' dance. 
And I'm shakin

e|---------------------------------------|
B|---------------------------------------|
G|------------------------------0--------|
D|---1-2---2--1-2----2---1-2-----2-------|
A|-2--------2---------2-----------2------|
E|----------------------------------0----|



e|-----------------------------------|
B|-----------------------------------|
G|---------------------------4-------|
D|---------2-----------------4-------|
A|---------2-----------------2-------|
E|---------0-------------------------|
Early in the morning time. Late in the middle of the night



e|-------------------------------------------------------------|
B|-------------------------------------------------------------|
G|-------------------------------------------------------------|
D|----7-------------------------------------5------------------|
A|----7-------------------------------------5------------------|
E|----5-------------------------------------3------------------|
Whenever this chill comes over me, I wanna hug with all my might, thats right. and I'm sweatin'

e|---------------------------------------|
B|---------------------------------------|
G|------------------------------0--------|
D|---1-2---2--1-2----2---1-2-----2-------|(x2)
A|-2--------2---------2-----------2------|
E|----------------------------------0----|
Oh, yeah you got me shakin
Mmm, you got me sweatin
Ohh, yeah you got me shakin girl

e|-----------------------------------------------------|
B|-----------------------------------------------------|
G|---------------------------------------------4-------|
D|---------2-----------------------------------4-------|
A|---------2-----------------------------------2-------|
E|---------0-------------------------------------------|
A chill in a fever so I've been told, Makes your head spin around and your feet run cold

e|---------------------------------------|
B|---------------------------------------|
G|------------------------------0--------|
D|---1-2---2--1-2----2---1-2-----2-------|
A|-2--------2---------2-----------2------|
E|----------------------------------0----|
I got fever
Fever,yeah I burn forsooth

e|-------------------------------------------------------------|
B|-------------------------------------------------------------|
G|-----------------------------------------------------4-------|
D|---2-------------------------------------------------4-------|
A|---2-------------------------------------------------2-------|
E|---0---------------------------------------------------------|
I feel like I been run right through the mill, And I can't move around and I can't stand 
still. I'm Bo Diddley


e|---------------------------------------|
B|---------------------------------------|
G|------------------------------0--------|
D|---1-2---2--1-2----2---1-2-----2-------|(x2)
A|-2--------2---------2-----------2------|
E|----------------------------------0----|
Oh, you got me shakin
I'm so jittery
Thats right, you got me shakin

e|-------------------------------------------------------------------------------------|
B|-------------------------------------------------------------------------------------|
G|--12---9---------------12---------------------------------------------------------9--|
D|---------12--9------------------7--7b--7b--7b-7b--7b-7b--7b-7b--7b-7b--7b------------|
A|---------------12--10------------------------------------------------------10-10-----|
E|-------------------------------------------------------------------------------------|

e|---------------------------------------------------------------------------------------------------|
B|--10b--10b-10---------------10--10b-10b--10b-10b--10---------10b-10b-10b-10b-10b-10b-10------------|
G|----------------12-9-9-12-----------------------------12---------------------------------12--9--9--|
D|---------------------------------------------------------------------------------------------------|
A|---------------------------------------------------------------------------------------------------|
E|---------------------------------------------------------------------------------------------------|

e|------------------------------------------|
B|------------------------------------------|
G|----------------------------------4-------|
D|-----2----------------------------4-------|
A|-----2----------------------------2-------|
E|-----0------------------------------------|
Well Samson was a mighty good man. Strongest in his day

e|----------------------------------------------------------------------|
B|----------------------------------------------------------------------|
G|----------------------------------------------------------------------|
D|-----7---------------------------------------------5------------------|
A|-----7---------------------------------------------5------------------|
E|-----5---------------------------------------------3------------------|
 Then along came Delilah and clipped his wig. And it looks like you took me the same old way


e|---------------------------------------|
B|---------------------------------------|
G|------------------------------0--------|
D|---1-2---2--1-2----2---1-2-----2-------|(x2)
A|-2--------2---------2-----------2------|
E|----------------------------------0----|
So I'm nervous
Oh and I'm shakin
Alright, you got me nervous
Yeah I'm shakin and jumpin

e|----------------------------------------------|
B|----------------------------------------------|
G|--------------------------------------4-------|
D|---------2----------------------------4-------|
A|---------2----------------------------2-------|
E|---------0------------------------------------|
A ship rocks the ship on the sea. The wind blows the leaves in the tree


e|--------------------------------------------------------------------------|
B|--------------------------------------------------------------------------|
G|--------------------------------------------------------------------------|
D|----------7---------------------------------------------5-----------------|
A|----------7---------------------------------------------5-----------------|
E|----------5---------------------------------------------3-----------------|
And I'm a nervous wreck and I'm all shook up, And that's what you're doin' to me right 
now. And I'm jumpin


e|---------------------------------------|
B|---------------------------------------|
G|------------------------------0--------|
D|---1-2---2--1-2----2---1-2-----2-------|(x4)
A|-2--------2---------2-----------2------|
E|----------------------------------0----|

Thats right you got me shakin
Ohh and I'm jumpin
Thats right, you got me shakin
Ohh, you got me shakin
Thats right, you got me nervous
But now I'm shakin
Ohh, you got me shakin

e|--------------|
B|--------------|
G|--------------|
D|---1-2--------|
A|-2------------|
E|--------------|

************************************

| r  Release
| b  Bend

************************************

            
            
Suggest correction
Creating personal tab
Creating personal tab
You can edit any tab online and save it as your Personal.

You can edit, replace or remove any tab part or add personal notes – all changes will be seen only by you.

Personal tabs can be accessed anytime from any device, even offline.
Learn more »
comments
print report bad tab
11 comments total. Showing first comments.
+1 reply
vanethe 10 Dec 12, 2012 01:59 AM

thanks ! so far so good , my problem is with the solo :P

0 reply
Challenger440 307 Dec 12, 2012 12:31 PM

practice, practice, practice for pretty much any Jack White solos. But I have a correction

instead of the main riff as:
|---------------------------------------|
|---------------------------------------|
|------------------------------0--------|
|---1-2---2--1-2----2---1-2-----2-------|
|-2--------2---------2-----------2------|
|----------------------------------0----|

there is an extra B (2nd on the A) on the third "part":
|----------------------------------------|
|----------------------------------------|
|-------------------------------0--------|
|---1-2---2--1-2----2----1-2-----2-------|
|-2--------2---------2-2----------2------|
|-----------------------------------0----|

+1 reply
Jmoarguitar 239 Aug 17, 2013 09:49 PM

I would have bent the 2nd fret on the G string instead of the 3rd but I'm sleepy so maybe I'm just going insane

guest
You may want to rate the tab now too:
select rating
Wanna post a correction for this tab? Suggest correction