Oops, an error
Loading. Please wait.

Machine Gun Silhouette Acoustic chords

46 views 6 this week
no commentswrite comment
1 2 3 4 5
2 more votes to show rating
add to favorites
×
Save as Personal and add changes to this tab that will be seen only by you. Learn more ›
×
You can save this tab as Personal to edit and correct it or add notes. All changes will be seen only by you. Learn more »
launch autoscroll
font size
0
reset
transpose
0
reset
display chords
guitar tuner
edit
Autoscroll
slow
fast
+/-
esc
set tempo
stop
About this tab version
Didn't see a tab or chords listed for this song, but it was easy enough to figure out. The timing is a little confusing at times, so listen to the song to get it right but I think the tab and chords are pretty accurate. Was this info helpful? Yes No
Strumming
There is no strumming pattern for this song yet. and get +5 IQ
https://youtu.be/llCQ_Bppy2g

[Intro]
e|-----------------------3-3-------------|
B|-----------------------3-3-------------|
G|-----------------0-----0-0-------------|
D|-----------0-0h2-------0-0-------------|
A|------0-0h2------------2-2-------------|
E|--0h3------------------3-3-------------|

e|-----------------------3-3-------------|
B|-----------------------3-3-------------|
G|-----------------0-----0-0-------------|
D|-----------0-0h2-------0-0-------------|
A|------0-0h2------------2-2-------------|
E|--0h3------------------3-3-------------|

e|------------------------|
B|------------------------|
G|------------------------|
D|-----------0-0h2--------|
A|------0-0h2-------0-----|
E|--0h3-------------------|

A [hold for 4 beats]

e|-----------------------3-----|
B|-----------------------3-----|
G|-----------------0-----0-----|
D|-----------0-0h2-------0-----|
A|------0-0h2------------2-----|
E|--0h3------------------3-----|

G D F G (x2
)

[Verse]
         G                    D
I wore a shirt one day with a machine gun silhouette
 F                  G
Sporttin' a rainbow clip
           G
I had this gun guy staring at me
D
Wondering where I got it
       F                       G
And he just about flipped over it!
        G                        D
I don't know his name, yeah, but just the same
          F                   G
He buys a literal mountain of death
      G           D
And I lost 5 or 6 bidding wars against him
        F                  G
Yeah, until I had no money left
        F                   G
I said until I had no money left
        F                   G
Yeah, until I had no money left

Oh!

e|-----------------------3-3-------------|
B|-----------------------3-3-------------|
G|-----------------0-----0-0-------------|
D|-----------0-0h2-------0-0-------------|
A|------0-0h2------------2-2-------------|
E|--0h3------------------3-3-------------|

e|-----------------------3-3-------------|
B|-----------------------3-3-------------|
G|-----------------0-----0-0-------------|
D|-----------0-0h2-------0-0-------------|
A|------0-0h2------------2-2-------------|
E|--0h3------------------3-3-------------|

e|------------------------|
B|------------------------|
G|------------------------|
D|-----------0-0h2--------|
A|------0-0h2-------0-----|
E|--0h3-------------------|

A [hold for 4 beats]

e|-----------------------3-----|
B|-----------------------3-----|
G|-----------------0-----0-----|
D|-----------0-0h2-------0-----|
A|------0-0h2------------2-----|
E|--0h3------------------3-----|

[Verse]
        G                               D
I don't want you getting hurt if you're too disappointed
        F                      G
If the feathers are broken and dead
    G
The birds look good in person
    D
But not in the photos
    F                   G
And super vice versa, I bet!
              G                  D
I've seen the auctioneer getting pretty frustrated
   F                         G
If something good gets under bid
       G
When I went down there
      D
I got pretty damned suspicious
       F                        G
But he seems like a pretty good kid
         F                        G
Yeah, he seems like a pretty good kid
         F                        G
Well, he seems like a pretty good kid!

G [hold 8 beats]

[break]
D C A C (x4
)
G D F G (x2)

[Verse]
     G                         D
This joint's been around for a while
                      F                   G
And it feels like the same old crowd each time
    G
But there's always that chance
     D
Of a shill biddin' trucker
          F                       G
Trying to help the old man make a dime
            G               D
There's one gun guy coming straight out of Texas
        F                G
Doesn't keep not one for himself
           G
He's got a kingdom of gun shops
   D
He likes to decorate 'em
         F                    G
With the trophies of somebody else
          F                    G
Yeah, the trophies of somebody else
          F                    G
Well, the trophies of somebody else!

e|-----------------------3-3-------------|
B|-----------------------3-3-------------|
G|-----------------0-----0-0-------------|
D|-----------0-0h2-------0-0-------------|
A|------0-0h2------------2-2-------------|
E|--0h3------------------3-3-------------|

e|-----------------------3-3-------------|
B|-----------------------3-3-------------|
G|-----------------0-----0-0-------------|
D|-----------0-0h2-------0-0-------------|
A|------0-0h2------------2-2-------------|
E|--0h3------------------3-3-------------|


e|------------------------|
B|------------------------|
G|------------------------|
D|-----------0-0h2--------|
A|------0-0h2-------0-----|
E|--0h3-------------------|

A [hold for 4 beats]


e|-----------------------3-----|
B|-----------------------3-----|
G|-----------------0-----0-----|
D|-----------0-0h2-------0-----|
A|------0-0h2------------2-----|
E|--0h3------------------3-----|


Bb [hold 8 beats] 

C [hold 8 beats]

e|-----------------------3-----|
B|-----------------------3-----|
G|-----------------0-----0-----|
D|-----------0-0h2-------0-----|
A|------0-0h2------------2-----|
E|--0h3------------------3-----|

End

************************************

| h  Hammer-on

************************************

            
            
Suggest correction
Creating personal tab
Creating personal tab
You can edit any tab online and save it as your Personal.

You can edit, replace or remove any tab part or add personal notes – all changes will be seen only by you.

Personal tabs can be accessed anytime from any device, even offline.
Learn more »
Give kudos to tab author, rate the tab!
1 2 3 4 5
comments
print report bad tab
guest
You may want to rate the tab now too:
select rating
Wanna post a correction for this tab? Suggest correction