Oops, an error
Loading. Please wait.

Sixteen Saltines Tab

version 2
version 2

Whole song

Interactive

99,133 views 105 this week
2 commentsread comments
1 2 3 4 5
x 30
add to favorites
launch autoscroll
font size
0
reset
how to read this tab
guitar tuner
Autoscroll
slow
fast
+/-
esc
set tempo
stop
Help us to improve Ultimate-Guitar.com Take our survey!
×
Author
Hey guys and gals! so this is my very VERY first tab, although I've been playing for a
few years now. Go easy on me, and if you have any contributions let me know! Also, I've
just been working off both the SNL and studio versions, but I haven't got the full solo 
yet (atleast not the end part of it anyway, that will come soon). But here ya go, super fun
to jam along to. Cheers!


[Intro/Verses]

e|----------------------|
B|----------------------|
G|------------2-2--4-4--|
D|-2-2--5-5---2-2--4-4--|
A|-2-2--5-5---0-0--2-2--|
E|-0-0--3-3-------------|


[Chorus]

e|---------------------|
B|---------------------|
G|-5-----7-------------|
D|-5(x8)-7(x8)---------|
A|-3-----5-------------|
E|---------------------|


[Groovin' Part]

e|---------------------|
B|---------------------|
G|---------------------|
D|-----0---------0-2---|
A|-------0---0---------|
E|-0-3---------3-------|


[Pre-Solo/Solo] 

(Probably not the exact solo but still sounds good. Not sure of the exact
count but just play it however many times you'd like!)

e|-----------------------5-5--7-7-7--10-10-10--12-12--------------|
B|---------5-5-5--8-8-8-------------------------------------------|
G|----------------------------------------------------------------|
D|-9--------------------------------------------------------------|
A|-7(x8)----------------------------------------------------------|
E|-7--------------------------------------------------------------|


Guitar in the background before the end (played slower than earlier on)

e|---------------------|
B|---------------------|
G|-5-------7-----------|
D|-5(x16)--7(x17)------|
A|-3-------5-----------|
E|---------------------|


Little end, little end

e|----------|
B|----------|
G|----------|
D|-2-2--5-5-|
A|-2-2--5-5-|
E|-0-0--3-3-|


And now for the order!

Intro/Verses riff (x5)
Chorus riff
Intro/Verses riff (x3)
Chorus riff
Groove part (x5)
Chorus riff
Intro/Verses riff (x5)
Chorus riff
Intro/Verses riff (x3)
Chorus riff
Groove part (x5)
Chorus riff
Pre-solo/Solo
Background end solo riff (or you could just improvise some solo stuff)
Little end, little end

Thanks for jamming!
Suggest correction
comments
print report bad tab
2 comments total.
+3 reply
albooga 10 Jan 05, 2014 11:30 AM, edited at 11:42 am

According to RockSmith, the chords for the verses are E5, G (only fret the 3rd fret on the low E on, mute second string and strum the top 5 strings), A and B/F# (B maj played on the second string). For chorus/break, the chords are C and D played on the second string.
They seem to favor the slightly tougher chords over power chords. It does affect the sound, but I guess either way would sound fine.

0 reply
ianobregon 10 Dec 04, 2015 06:31 PM

Great tab!!!!
Do more of Jack!!!

guest
You may want to rate the tab now too:
select rating
Wanna post a correction for this tab? Suggest correction