Oops, an error
Loading. Please wait.

That Black Bat Licorice Tab

25,776 views 72 this week
2 commentsread comments
1 2 3 4 5
x 25
add to favorites
launch autoscroll
font size
0
reset
how to read this tab
guitar tuner
Autoscroll
slow
fast
+/-
esc
set tempo
stop
Help us to improve Ultimate-Guitar.com Take our survey!
×
Author
Difficulty
intermediate
-------------------------------------------------------------------------------
                             That Black Bat Licorice - Jack White
-------------------------------------------------------------------------------

Tuning: Standard
YouTube Lesson: https://www.youtube.com/watch?v=P7-zfLqW_aY

PART I (w/ Harmonizer)
e|------------------------------------|
B|------------------------------------|
G|-12-----------12--------------------|
D|----14-12--------14-12--------------|
A|----------14-----------14-13-12-10--|
E|------------------------------------| 2x

e|---------------------------------------------------------|
B|---------------------------------------------------------|
G|-12-----------12-----------------------------------------|
D|----14-12--------14-12--------------10-10-10-10-12-10-9--|
A|----------14-----------14-13-12-10-----------------------|
E|---------------------------------------------------------|

e|------------------------------------|
B|------------------------------------|
G|-12-----------12--------------------|
D|----14-12--------14-12--------------|
A|----------14-----------14-13-12-10--|
E|------------------------------------| 2x

e|---------------------------------------------------------|
B|---------------------------------------------------------|
G|-12-----------12-----------------------------------------|
D|----14-12--------14-12--------------10-10-10-10-12-10-9--|
A|----------14-----------14-13-12-10-----------------------|
E|---------------------------------------------------------|

Part II (w/ Harmonizer)
e|---------------------------------------------------------------------------|
B|---------------------------------------------------------------------------|
G|---------------------------------------------------------------------------|
D|---------------------------------------------------------------------------|
A|---------------------------------------------------------------------------|
E|-0--0-0-0--3--3-3-3--5-5-7-7-0--0-0-0--3--3-3-3--5-5-7-7-------------------|

e|---------------------------------------------|
B|---------------------------------------------|
G|---------------------------------------------|
D|---------------------------------------------|
A|---------------------------------------------|
E|-0--0-0-0--3--3-3-3--5-5-7-7-8-8-8-8-10-8-7--|

e|---------------------------------------------------------------------------|
B|---------------------------------------------------------------------------|
G|---------------------------------------------------------------------------|
D|---------------------------------------------------------------------------|
A|---------------------------------------------------------------------------|
E|-0--0-0-0--3--3-3-3--5-5-7-7-0--0-0-0--3--3-3-3--5-5-7-7-------------------|

e|---------------------------------------------|
B|---------------------------------------------|
G|---------------------------------------------|
D|---------------------------------------------|
A|---------------------------------------------|
E|-0--0-0-0--3--3-3-3--5-5-7-7-8-8-8-8-10-8-7--|

Part III (w/ Harmonizer)
e|-----------------------------------------------------|
B|-----------------------------------------------------|
G|-----------------------------------------------------|
D|--------7-9--10--9-7-7-9----------7-9--10--9---7-----|
A|-7-7-10--------------------7-7-10------------7---10--|
E|-----------------------------------------------------|

e|-----------------------------------------------------|
B|-----------------------------------------------------|
G|-----------------------------------------------------|
D|--------7-9--10--9-7-7-9----------10--9-7------------|
A|-7-7-10-----------------------------------10-----7---|
E|-----------------------------------------------------|

e|-----------------------------------------------------|
B|-----------------------------------------------------|
G|-----------------------------------------------------|
D|--------7-9--10--9-7-7-9----------7-9--10--9---7-----|
A|-7-7-10--------------------7-7-10------------7---10--|
E|-----------------------------------------------------|

e|--------------------------------------------------------------------|
B|--------------------------------------------------------------------|
G|---------------------------9-7----7---------------------------------|
D|--------7-9--10--9-7-7-9-------10---10-9-10-9-7-9-7--- 7-8h7--------|
A|-7-7-10---------------------------------------------10-------10--7--|
E|--------------------------------------------------------------------|

PART I (w/ Harmonizer)
e|------------------------------------|
B|------------------------------------|
G|-12-----------12--------------------|
D|----14-12--------14-12--------------|
A|----------14-----------14-13-12-10--|
E|------------------------------------| 2x

e|---------------------------------------------------------|
B|---------------------------------------------------------|
G|-12-----------12-----------------------------------------|
D|----14-12--------14-12--------------10-10-10-10-12-10-9--|
A|----------14-----------14-13-12-10-----------------------|
E|---------------------------------------------------------|

e|------------------------------------|
B|------------------------------------|
G|-12-----------12--------------------|
D|----14-12--------14-12--------------|
A|----------14-----------14-13-12-10--|
E|------------------------------------| 2x

e|---------------------------------------------------------|
B|---------------------------------------------------------|
G|-12-----------12-----------------------------------------|
D|----14-12--------14-12--------------10-10-10-10-12-10-9--|
A|----------14-----------14-13-12-10-----------------------|
E|---------------------------------------------------------|

Part II (w/ Harmonizer)
e|---------------------------------------------------------------------------|
B|---------------------------------------------------------------------------|
G|---------------------------------------------------------------------------|
D|---------------------------------------------------------------------------|
A|---------------------------------------------------------------------------|
E|-0--0-0-0--3--3-3-3--5-5-7-7-0--0-0-0--3--3-3-3--5-5-7-7-------------------|

e|---------------------------------------------|
B|---------------------------------------------|
G|---------------------------------------------|
D|---------------------------------------------|
A|---------------------------------------------|
E|-0--0-0-0--3--3-3-3--5-5-7-7-8-8-8-8-10-8-7--|

e|---------------------------------------------------------------------------|
B|---------------------------------------------------------------------------|
G|---------------------------------------------------------------------------|
D|---------------------------------------------------------------------------|
A|---------------------------------------------------------------------------|
E|-0--0-0-0--3--3-3-3--5-5-7-7-0--0-0-0--3--3-3-3--5-5-7-7-------------------|

e|---------------------------------------------|
B|---------------------------------------------|
G|---------------------------------------------|
D|---------------------------------------------|
A|---------------------------------------------|
E|-0--0-0-0--3--3-3-3--5-5-7-7-8-8-8-8-10-8-7--|

************************************

| h  Hammer-on

************************************
Suggest correction
comments
print report bad tab
2 comments total.
0 reply
maurex23 10 Jun 23, 2014 07:27 PM

YES! thank you, great song.

+5 reply
guybguyb1 10 Jul 23, 2014 11:16 PM


e|-----------------------------------------------------|
B|-----------------------------------------------------|
G|-----------------------------------------------------|
D|--------7-9--10--9-7-7-9----------7-9--10--9---7-----|
A|-7-7-10--------------------7-7-10------------7---10--|
E|-----------------------------------------------------|

should be

e|-----------------------------------------------------|
B|-----------------------------------------------------|
G|-----------------------------------------------------|
D|--------7-9--10--9-7-7-9----------7-9--10--9---------|
A|-7-7-10--------------------7-7-10------------7--9-10-|
E|-----------------------------------------------------|

guest
You may want to rate the tab now too:
select rating
Wanna post a correction for this tab? Suggest correction