Oops, an error
Loading. Please wait.

Apocalypse tab

103 views 3 this week
no commentswrite comment
1 2 3 4 5
3 more votes to show rating
add to favorites
×
Save as Personal and add changes to this tab that will be seen only by you. Learn more ›
×
You can save this tab as Personal to edit and correct it or add notes. All changes will be seen only by you. Learn more »
launch autoscroll
font size
0
reset
how to read this tab
guitar tuner
edit
Autoscroll
slow
fast
+/-
esc
set tempo
stop
Author
[Intro]

e|4-----4-----4---3-----3-----3---|4-----4-----4---3-----3-----3----|
B|----4-----4---------4-----4-----|----4-----4---------4-----4------|
G|--5-----5-----5---5-----5-----5-|--5-----5-----5---5-----5-----5--|
D|--------------------------------|---------------------------------|
A|--------------------------------|---------------------------------|
E|--------------------------------|---------------------------------|


[Verse]

e|4-----4-----4---3-----3-----3---|4-----4-----4---3-----3-----3----|
B|----4-----4---------4-----4-----|----4-----4---------4-----4------|
G|--5-----5-----5---5-----5-----5-|--5-----5-----5---5-----5-----5--|
D|--------------------------------|---------------------------------|
A|--------------------------------|---------------------------------|
E|--------------------------------|---------------------------------|
Fixing to find you in this treacherous terrain

e|4-----4-----4---3-----3-----3---|4-----4-----4---3-----3-----3----|
B|----4-----4---------4-----4-----|----4-----4---------4-----4------|
G|--5-----5-----5---5-----5-----5-|--5-----5-----5---5-----5-----5--|
D|--------------------------------|---------------------------------|
A|--------------------------------|---------------------------------|
E|--------------------------------|---------------------------------|
There's landslide, and landmines, it's a jungle that we made

e|4-----4-----4---3-----3-----3---|4-----4-----4---3-----3-----3----|
B|----4-----4---------4-----4-----|----4-----4---------4-----4------|
G|--5-----5-----5---5-----5-----5-|--5-----5-----5---5-----5-----5--|
D|--------------------------------|---------------------------------|
A|--------------------------------|---------------------------------|
E|--------------------------------|---------------------------------|
You're not the king of it no more, I'm not the girl that you'd die for

e|9-----9-----9---9-----9-----9---|9-----9-----9---9-----9----------|
B|----9-----9---------8-----8-----|----6-----6---------8------------|
G|--8-----8-----8---8-----8-----8-|--8-----8-----8---8--------------|
D|--------------------------------|---------------------------------|
A|--------------------------------|---------------------------------|
E|--------------------------------|---------------------------------|
None of us is better than the other, None of us is better than the other


[Verse]

e|4-----4-----4---3-----3-----3---|4-----4-----4---3-----3-----3-4--|
B|----4-----4---------4-----4-----|----4-----4---------4-----4------|
G|--5-----5-----5---5-----5-----5-|--5-----5-----5---5-----5--------|
D|--------------------------------|---------------------------------|
A|--------------------------------|---------------------------------|
E|--------------------------------|---------------------------------|
It draws blood The sweet sting, But it's poison that we know

e|4-----4-----4---3-----3-----3---|4-----4-----4---3-----3-----3-4--|
B|----4-----4---------4-----4-----|----4-----4---------4-----4------|
G|--5-----5-----5---5-----5-----5-|--5-----5-----5---5-----5--------|
D|--------------------------------|---------------------------------|
A|--------------------------------|---------------------------------|
E|--------------------------------|---------------------------------|
I thank God you found me, And God knows how I let you go

e|4-----4-----4---3-----3-----3---|4-----4-----4---3-----3-----3-4--|
B|----4-----4---------4-----4-----|----4-----4---------4-----4------|
G|--5-----5-----5---5-----5-----5-|--5-----5-----5---5-----5--------|
D|--------------------------------|---------------------------------|
A|--------------------------------|---------------------------------|
E|--------------------------------|---------------------------------|
Are we a kingdom worth saving? Is it a shadow I'm chasing?

e|9-----9-----9---9-----9-----9---|9-----9-----9---9-----9----------|
B|----9-----9---------8-----8-----|----6-----6---------8------------|
G|--8-----8-----8---8-----8-----8-|--8-----8-----8---8--------------|
D|--------------------------------|---------------------------------|
A|--------------------------------|---------------------------------|
E|--------------------------------|---------------------------------|
I know I'll never see you in another, You know you'll never see me in another


[Chorus]

e|6-----6-----6---4-----4-----4---|3-----3-----3---4-----4-----4----|
B|----4-----4---------4-----4-----|----4-----4---------4-----4------|
G|--5-----5-----5---5-----5-----5-|--5-----5-----5---5-----5-----5--|
D|--------------------------------|---------------------------------|
A|--------------------------------|---------------------------------|
E|--------------------------------|---------------------------------|
To lose you, really lose you

e|6-----6-----6---4-----4-----4---|3-----3-----3---4-----4-----4----|
B|----4-----4---------4-----4-----|----4-----4---------4-----4------|
G|--5-----5-----5---5-----5-----5-|--5-----5-----5---5-----5-----5--|
D|--------------------------------|---------------------------------|
A|--------------------------------|---------------------------------|
E|--------------------------------|---------------------------------|
I'm gonna have to lose myself, I'm gonna have to lose myself

e|8-----8-----8---6-----6-----6---|8-----8-----8---6-----6-----6----|
B|----6-----6---------6-----6-----|----6-----6---------6-----6------|
G|--6-----6-----6---6-----6-----6-|--6-----6-----6---6-----6-----6--|
D|--------------------------------|---------------------------------|
A|--------------------------------|---------------------------------|
E|--------------------------------|---------------------------------|
No matter how long it will hurt like this, We're not gonna live until the apocalypse

e|9-----9-----9---8-----8-----8---|8-----8-----8---6-------6--------|
B|----9-----9---------8-----8-----|----6-----6-----------8----------|
G|--8-----8-----8---8-----8-----8-|--6-----6-----6---6-8------------|
D|--------------------------------|---------------------------------|
A|--------------------------------|---------------------------------|
E|--------------------------------|---------------------------------|
Gotta go crazy, Crazy to 

e|6-----6-----6---4-----4-----4---|3-----3-----3---4-----4----------|
B|----4-----4---------4-----4-----|----4-----4---------4------------|
G|--5-----5-----5---5-----5-----5-|--5-----5-----5---5--------------|
D|--------------------------------|---------------------------------|
A|--------------------------------|---------------------------------|
E|--------------------------------|---------------------------------|
lose you


[Verse]

e|4-----4-----4---3-----3-----3---|4-----4-----4---3-----3-----3-4--|
B|----4-----4---------4-----4-----|----4-----4---------4-----4------|
G|--5-----5-----5---5-----5-----5-|--5-----5-----5---5-----5--------|
D|--------------------------------|---------------------------------|
A|--------------------------------|---------------------------------|
E|--------------------------------|---------------------------------|
Day flies, and night falls, I break out my artillery

e|4-----4-----4---3-----3-----3---|4-----4-----4---3-----3-----3-4--|
B|----4-----4---------4-----4-----|----4-----4---------4-----4------|
G|--5-----5-----5---5-----5-----5-|--5-----5-----5---5-----5--------|
D|--------------------------------|---------------------------------|
A|--------------------------------|---------------------------------|
E|--------------------------------|---------------------------------|
I suit up for night crawls, I go out, disguised as me

e|8-----8-----8---6-----6-----6---|4-----4-----4---6-----6-----6----|
B|----6-----6---------6-----6-----|----6-----6---------6-----6------|
G|--6-----6-----6---6-----6-----6-|--6-----6-----6---6-----6-----6--|
D|--------------------------------|---------------------------------|
A|--------------------------------|---------------------------------|
E|--------------------------------|---------------------------------|
No matter how much I flaunt it, I can't go home 'cause it's haunted


e|9-----9-----9---9-----9-----9---|9-----9-----9---9-----9----------|
B|----9-----9---------8-----8-----|----6-----6---------8------------|
G|--8-----8-----8---8-----8-----8-|--8-----8-----8---8--------------|
D|--------------------------------|---------------------------------|
A|--------------------------------|---------------------------------|
E|--------------------------------|---------------------------------|
I don't know if my heart can still afford this, Sleeping in a bed that was our fortress


[Chorus]

e|6-----6-----6---4-----4-----4---|3-----3-----3---4-----4-----4----|
B|----4-----4---------4-----4-----|----4-----4---------4-----4------|
G|--5-----5-----5---5-----5-----5-|--5-----5-----5---5-----5-----5--|
D|--------------------------------|---------------------------------|
A|--------------------------------|---------------------------------|
E|--------------------------------|---------------------------------|
To lose you, really lose you

e|6-----6-----6---4-----4-----4---|3-----3-----3---4-----4-----4----|
B|----4-----4---------4-----4-----|----4-----4---------4-----4------|
G|--5-----5-----5---5-----5-----5-|--5-----5-----5---5-----5-----5--|
D|--------------------------------|---------------------------------|
A|--------------------------------|---------------------------------|
E|--------------------------------|---------------------------------|
I'm gonna have to lose myself, I'm gonna have to lose myself

e|8-----8-----8---6-----6-----6---|8-----8-----8---6-----6-----6----|
B|----6-----6---------6-----6-----|----6-----6---------6-----6------|
G|--6-----6-----6---6-----6-----6-|--6-----6-----6---6-----6-----6--|
D|--------------------------------|---------------------------------|
A|--------------------------------|---------------------------------|
E|--------------------------------|---------------------------------|
No matter how long it will hurt like this, We're not gonna live until the apocalypse

e|9-----9-----9---8-----8-----8---|8-----8-----8---6-------6--------|
B|----9-----9---------8-----8-----|----6-----6-----------8----------|
G|--8-----8-----8---8-----8-----8-|--6-----6-----6---6-8------------|
D|--------------------------------|---------------------------------|
A|--------------------------------|---------------------------------|
E|--------------------------------|---------------------------------|
Gotta go crazy, Crazy to 

e|6-----6-----6---4-----4-----4---|
B|----4-----4---------4-----4-----|
G|--5-----5-----5---5-----5-----5-|
D|--------------------------------|
A|--------------------------------|
E|--------------------------------|
lose you


[Bridge]

e|4-----4-----4---3-----3-----3---|4-----4-----4---3-----3-----3----|
B|----4-----4---------4-----4-----|----4-----4---------4-----4------|
G|--6-----6-----6---6-----6-----6-|--6-----6-----6---6-----6-----6--|
D|--------------------------------|---------------------------------|
A|--------------------------------|---------------------------------|
E|--------------------------------|---------------------------------|
Used to love listening to sad songs, Strikes my fingers all along, The silver linings

e|1-----1-----1----1-----1-----1-3|4-----4-----4---4-----4-----4----|
B|1-----1-----1----1-----1--------|----6-----6---------4-----4------|
G|----1-----1----------1-----1----|--5-----5-----5---5-----5-----5--|
D|--3-----3-----3----3-----3------|---------------------------------|
A|--------------------------------|---------------------------------|
E|--------------------------------|---------------------------------|
Now I don't listen to sad songs, course my old world is blowing up behind me

e|1-----1-----1---1-----1-----1---|1-----1-3-----3-4-----4-6-----6--|11--|
B|----2-----2---------2-----2-----|----2-------2-------2-------8----|----|
G|--1-----1-----1---1-----1-----1-|--3-------3-------3-------8------|----|
D|--------------------------------|---------------------------------|----|
A|--------------------------------|---------------------------------|----|
E|--------------------------------|---------------------------------|----|
It's all gone for good, A better world will find me


[Chorus]

e|6-----6-----6---4-----4-----4---|3-----3-----3---4-----4-----4----|
B|----4-----4---------4-----4-----|----4-----4---------4-----4------|
G|--5-----5-----5---5-----5-----5-|--5-----5-----5---5-----5-----5--|
D|--------------------------------|---------------------------------|
A|--------------------------------|---------------------------------|
E|--------------------------------|---------------------------------|
To lose you, really lose you

e|6-----6-----6---4-----4-----4---|3-----3-----3---4-----4-----4----|
B|----4-----4---------4-----4-----|----4-----4---------4-----4------|
G|--5-----5-----5---5-----5-----5-|--5-----5-----5---5-----5-----5--|
D|--------------------------------|---------------------------------|
A|--------------------------------|---------------------------------|
E|--------------------------------|---------------------------------|
I'm gonna have to lose myself, I'm gonna have to lose myself

e|8-----8-----8---6-----6-----6---|8-----8-----8---6-----6-----6----|
B|----6-----6---------6-----6-----|----6-----6---------6-----6------|
G|--6-----6-----6---6-----6-----6-|--6-----6-----6---6-----6-----6--|
D|--------------------------------|---------------------------------|
A|--------------------------------|---------------------------------|
E|--------------------------------|---------------------------------|
No matter how long it will hurt like this, We're not gonna live until the apocalypse

e|9-----9-----9---8-----8-----8---|8-----8-----8---6-------6--------|
B|----9-----9---------8-----8-----|----6-----6-----------8----------|
G|--8-----8-----8---8-----8-----8-|--6-----6-----6---6-8------------|
D|--------------------------------|---------------------------------|
A|--------------------------------|---------------------------------|
E|--------------------------------|---------------------------------|
Gotta go crazy, Crazy to 

e|6-----6-----6---4-----4-----4---|
B|----4-----4---------4-----4-----|
G|--5-----5-----5---5-----5-----5-|
D|--------------------------------|
A|--------------------------------|
E|--------------------------------|
lose you

e|8-----8-----8---6-----6-----6---|8-----8-----8---6-----6-----6----|
B|----6-----6---------6-----6-----|----6-----6---------6-----6------|
G|--6-----6-----6---6-----6-----6-|--6-----6-----6---6-----6-----6--|
D|--------------------------------|---------------------------------|
A|--------------------------------|---------------------------------|
E|--------------------------------|---------------------------------|
No matter how long it will hurt like this, We're not gonna live until the apocalypse

e|9-----9-----9---8-----8-----8---|8-----8-----8---6-------6--------|
B|----9-----9---------8-----8-----|----6-----6-----------8----------|
G|--8-----8-----8---8-----8-----8-|--6-----6-----6---6-8------------|
D|--------------------------------|---------------------------------|
A|--------------------------------|---------------------------------|
E|--------------------------------|---------------------------------|
Gotta go crazy, Crazy to 

e|6-----6-----6---4-----4-----4---|3-----3-----3---4-----4----------|
B|----4-----4---------4-----4-----|----4-----4---------4------------|
G|--5-----5-----5---5-----5-----5-|--5-----5-----5---5--------------|
D|--------------------------------|---------------------------------|
A|--------------------------------|---------------------------------|
E|--------------------------------|---------------------------------|
lose you

            
            
Suggest correction
Creating personal tab
Creating personal tab
You can edit any tab online and save it as your Personal.

You can edit, replace or remove any tab part or add personal notes – all changes will be seen only by you.

Personal tabs can be accessed anytime from any device, even offline.
Learn more »
Give kudos to tab author, rate the tab!
1 2 3 4 5
comments
print report bad tab
guest
You may want to rate the tab now too:
select rating
Wanna post a correction for this tab? Suggest correction