Oops, an error
Loading. Please wait.

Reet Petite bass

version 1
version 1

Whole song

Interactive

551 views 1 this week
1 commentread comment
1 2 3 4 5
3 more votes to show rating
add to favorites
×
Save as Personal and add changes to this tab that will be seen only by you. Learn more ›
×
You can save this tab as Personal to edit and correct it or add notes. All changes will be seen only by you. Learn more »
launch autoscroll
font size
0
reset
guitar tuner
edit
Autoscroll
slow
fast
+/-
esc
set tempo
stop
Author
Difficulty
Jackie Wilson
Reet Petite 

Bass Tabs


Tuning : EADG
Tempo: 85 bpm 
Key signature: F

Ouverture: 00:01 (trombones playing)
G|------------|------------|-----------7-|-----------7-|-
D|----------5-|----------5-|---7--7-10---|---7--7-10---|-
A|---5--5-8---|---5--5-8---|-8-----------|-8-----------|-
E|-6----------|-6----------|-------------|-------------|-

Intro: 00:07
G|-----------7-|-----------7-|-----------7-|-----------7-|-
D|---7--7-10---|---7--7-10---|---7--7-10---|---7--7-10---|-
A|-8-----------|-8-----------|-8-----------|-8-----------|-
E|-------------|-------------|-------------|-------------|-                            
Well.. Look about, look about, look about, look about, ooh wee

G|------------|------------|-----------7-|-----------7-|-
D|----------5-|----------5-|---7--7-10---|---7--7-10---|-
A|---5--5-8---|---5--5-8---|-8-----------|-8-----------|-
E|-6----------|-6----------|-------------|-------------|-
   Look about, look about,  look about, ooh wee

G|------------|------------|------------|-
D|------------|------------|------------|-
A|------------|------------|-8-8-8-~~---|-
E|----8.---8.-|----6.---6.-|------------|-
   Ooh,  ah,    ooh,  ah,   ooh wee


Verse2: 00:23 
G|-----------7-|-----------7-|-----------7-|-----------7-|-
D|---7--7-10---|---7--7-10---|---7--7-10---|---7--7-10---|-
A|-8-----------|-8-----------|-8-----------|-8-----------|-
E|-------------|-------------|-------------|-------------|-                            
Well...  she's so fine fine fine, she's fine f-fine

G|------------|------------|-----------7-|-----------7-|-
D|----------5-|----------5-|---7--7-10---|---7--7-10---|-
A|---5--5-8---|---5--5-8---|-8-----------|-8-----------|-
E|-6----------|-6----------|-------------|-------------|-
She's so fi-yi-yi-yi-yi-yine, she's so fine fine fine 

G|-------------|------------|-----------7-|-------------|-
D|-----------7-|----------5-|---7--7-10---|-------------|-
A|---7--7-10---|---5--5-8---|-8-----------|-------------|-
E|-8-----------|-6----------|-------------|-------------|-
She's really sweet, the finest girl you ever wanna meet 
      
      
Chorus1: 00:40 
G|------------|------------|-----------7-|-----------7-|-
D|----------5-|----------5-|---7--7-10---|---7--7-10---|-
A|---5--5-8---|---5--5-8---|-8-----------|-8-----------|-
E|-6----------|-6----------|-------------|-------------|-
Oh oh oh oh,                 oh oh oh oh 

G|-------------|------------|-----------7-|-----------7-|-
D|-----------7-|----------5-|---7--7-10---|---7--7-10---|-
A|---7--7-10---|---5--5-8---|-8-----------|-8-----------|-
E|-8-----------|-6----------|-------------|-------------|-
Reet petite, the finest girl you ever wanna meet


Verse3 (Stabs): 00:51 
G|-------------|-------------|-------------|-------------|-
D|-------------|-------------|-------------|-------------|-
A|-8.----------|-8.----------|-8.------8.--|-8-9-10-11---|-
E|-------------|-------------|-------------|-------------|-                            
Well... have you ever seen a girl for whom your soul you'd give
 For whom you'd fight for, die for, pray to God to live 
G|------------|------------|-----------7-|-----------7-|-
D|----------5-|----------5-|---7--7-10---|---7--7-10---|-
A|---5--5-8---|---5--5-8---|-8-----------|-8-----------|-
E|-6----------|-6----------|-------------|-------------|-
'Cause she's so fine, she's so fine

G|-------------|------------|-----------7-|-----------7-|-
D|-----------7-|----------5-|---7--7-10---|---7--7-10---|-
A|---7--7-10---|---5--5-8---|-8-----------|-8-----------|-
E|-8-----------|-6----------|-------------|-------------|-
She's really sweet, the finest girl you ever wanna meet


Verse4 (Stabs): 01:08
G|-------------|-------------|-------------|-------------|-
D|-------------|-------------|-------------|-------------|-
A|-8.----------|-8.----------|-8.-------8.-|-8-9-10-11---|-
E|-------------|-------------|-------------|-------------|-                            
Well... she really fills her clothes from her head to toe 
I want the world to know, I love her, love her so 
G|------------|------------|-----------7-|-----------7-|-
D|----------5-|----------5-|---7--7-10---|---7--7-10---|-
A|---5--5-8---|---5--5-8---|-8-----------|-8-----------|-
E|-6----------|-6----------|-------------|-------------|-
She's alright, she's alright

G|-------------|------------|-----------7-|-------------|-
D|-----------7-|----------5-|---7--7-10---|-------------|-
A|---7--7-10---|---5--5-8---|-8-----------|-------------|-
E|-8-----------|-6----------|-------------|-------------|-
She's alright, she loves me all day and night 

Chorus2: 01:25
G|------------|------------|-----------7-|-----------7-|-
D|----------5-|----------5-|---7--7-10---|---7--7-10---|-
A|---5--5-8---|---5--5-8---|-8-----------|-8-----------|-
E|-6----------|-6----------|-------------|-------------|-
Oh oh oh oh,                 oh oh oh oh 

G|-------------|------------|-----------7-|-----------7-|-
D|-----------7-|----------5-|---7--7-10---|---7--7-10---|-
A|---7--7-10---|---5--5-8---|-8-----------|-8-----------|-
E|-8-----------|-6----------|-------------|-------------|-
Reet petite, the finest girl you ever wanna meet


Interlude: 01:36 
G|------------|------------|-----------7-|-----------7-|-
D|----------5-|----------5-|---7--7-10---|---7--7-10---|-
A|---5--5-8---|---5--5-8---|-8-----------|-8-----------|-
E|-6----------|-6----------|-------------|-------------|-
ohoo...


Verse4 (Stabs): 01:42 
G|-------------|-------------|-------------|-------------|-
D|-------------|-------------|-------------|-------------|-
A|-8.----------|-8.----------|-8.----------|-8-9-10-11---|-
E|-------------|-------------|-------------|-------------|-                            
Well... she's like a honey from a bee, like peaches from a tree 
I love her, need her, she means so much to me
G|------------|------------|-----------7-|-----------7-|-
D|----------5-|----------5-|---7--7-10---|---7--7-10---|-
A|---5--5-8---|---5--5-8---|-8-----------|-8-----------|-
E|-6----------|-6----------|-------------|-------------|-
She's alright, she got's what it takes

G|-------------|------------|-----------7-|-----------7-|-
D|-----------7-|----------5-|---7--7-10---|---7--7-10---|-
A|---7--7-10---|---5--5-8---|-8-----------|-8-----------|-
E|-8-----------|-6----------|-------------|-------------|-
 She's got what it takes and with me she really rates

Verse4 (Stabs): 01:58 
G|-------------|-------------|-------------|-------------|-
D|-------------|-------------|-------------|-------------|-
A|-8.----------|-8.----------|-8.----------|-8-9-10-11---|-
E|-------------|-------------|-------------|-------------|-                            
Well... now she's my cutie, my tutti frutti 
My heart, my love, my bathing beauty
G|------------|------------|-----------7-|-----------7-|-
D|----------5-|----------5-|---7--7-10---|---7--7-10---|-
A|---5--5-8---|---5--5-8---|-8-----------|-8-----------|-
E|-6----------|-6----------|-------------|-------------|-
She's alright, she got's what it takes

G|-------------|------------|-----------7-|-------------|-
D|-----------7-|----------5-|---7--7-10---|-------------|-
A|---7--7-10---|---5--5-8---|-8-----------|-------------|-
E|-8-----------|-6----------|-------------|-------------|-
 She's got what it takes and with me she really rates

Chorus3: 00:21 
G|------------|------------|-----------7-|-----------7-|-
D|----------5-|----------5-|---7--7-10---|---7--7-10---|-
A|---5--5-8---|---5--5-8---|-8-----------|-8-----------|-
E|-6----------|-6----------|-------------|-------------|-
Oh oh oh oh,                 oh oh oh oh 

G|-------------|------------|-----------7-|-----------7-|-
D|-----------7-|----------5-|---7--7-10---|---7--7-10---|-
A|---7--7-10---|---5--5-8---|-8-----------|-8-----------|-
E|-8-----------|-6----------|-------------|-------------|-
Reet petite, the finest girl you ever wanna meet

Outro: 00:21 
G|-------------|------------|-----------7-|-----------7-|-
D|-----------7-|----------5-|---7--7-10---|---7--7-10---|-
A|---7--7-10---|---5--5-8---|-8-----------|-8-----------|-
E|-8-----------|-6----------|-------------|-------------|-
Reet petite, the finest girl you ever wanna meet

G|-------------|------------|-----------7-10-7-------------|-
D|-----------7-|----------5-|---7--7-10--------10-7r-------|-
A|---7--7-10---|---5--5-8---|-8-----------------------8~~~-|-
E|-8-----------|-6----------|------------------------------|-
Reet petite, the finest girl you ever wanna meet


End: 02:41 



Index
| /   slide up
| \   slide down
| h   hammer-on
| g   Gost note
| p   pull-off
| ~   vibrato
| .   full stop
| +   harmonic
| x   Mute note
| b   Bend
| r   Bend and release

            
            
Suggest correction
Creating personal tab
Creating personal tab
You can edit any tab online and save it as your Personal.

You can edit, replace or remove any tab part or add personal notes – all changes will be seen only by you.

Personal tabs can be accessed anytime from any device, even offline.
Learn more »
Give kudos to tab author, rate the tab!
1 2 3 4 5
comments
print report bad tab
1 comment total.
0 reply
sheila scotty 16 Nov 12, 2015 05:17 AM

Lovely one... Thanks

guest
You may want to rate the tab now too:
select rating
Wanna post a correction for this tab? Suggest correction