Oops, an error
Loading. Please wait.

Reet Petite tab

version 1
version 1

Whole song

  • Rythm guitar tabbed out for the song.

Interactive

22 views 1 this week
no commentswrite comment
1 2 3 4 5
2 more votes to show rating
add to favorites
×
Save as Personal and add changes to this tab that will be seen only by you. Learn more ›
×
You can save this tab as Personal to edit and correct it or add notes. All changes will be seen only by you. Learn more »
launch autoscroll
font size
0
reset
how to read this tab
guitar tuner
edit
Autoscroll
slow
fast
+/-
esc
set tempo
stop
About this tab version
Rythm guitar tabbed out for the song. Was this info helpful? Yes No
[Intro]
E|--------------5--5--5--5--5--5--5--5--3--3--3--3--|
B|--------------6--6--6--6--6--6--6--6--5--5--5--5--|
G|--------------5--5--5--5--5--5--5--5--5--5--5--5--|
D|--------------5--5--5--5--7--7--7--7--5--5--5--5--|
A|--------------------------------------------------|
E|--------------------------------------------------|

[Chorus]
E|--3--3--3--3--3--3--3--3--3--3--3--3--3--3--3--3--|
B|--5--5--5--5--5--5--5--5--5--5--5--5--5--5--5--5--|
G|--5--5--5--5--5--5--5--5--5--5--5--5--5--5--5--5--|
D|--5--5--5--5--5--5--5--5--5--5--5--5--5--5--5--5--|
A|--------------------------------------------------|
E|--------------------------------------------------|
    Looka there, looka there, looka there, ooh, wee!

E|--5--5--5--5--5--5--5--5--3--3--3--3--3--3--3--3--|
B|--6--6--6--6--4--4--4--4--5--5--5--5--5--5--5--5--|
G|--5--5--5--5--5--5--5--5--5--5--5--5--5--5--5--5--|
D|--7--7--7--7--7--7--7--7--5--5--5--5--5--5--5--5--|
A|--------------------------------------------------|
E|--------------------------------------------------|
    Looka there, looka there, looka there, ooh, wee!

E|-----------------------3--3--3--3--3--------------|
B|-----------------------5--5--5--5--5--------------|
G|--7-----7-----7-----7--5--5--5--5--5--------------|
D|--7-----7-----7-----7--5--5--5--5--5--------------|
A|--8-----8-----8-----8-----------------------------|
E|--------------------------------------------------|
    Ooh, ah, ooh, ah, ooh, wee, well she's so

E|--3--3--3--3--3--3--3--3--3--3--3--3--3--3--3--3--|
B|--5--5--5--5--5--5--5--5--5--5--5--5--5--5--5--5--|
G|--5--5--5--5--5--5--5--5--5--5--5--5--5--5--5--5--|
D|--5--5--5--5--5--5--5--5--5--5--5--5--5--5--5--5--|
A|--------------------------------------------------|
E|--------------------------------------------------|
    Fine, fine, fine, she's so fine, fine, fine, she's so

E|--5--5--5--5--5--5--5--5--3--3--3--3--3--3--3--3--|
B|--6--6--6--6--4--4--4--4--5--5--5--5--5--5--5--5--|
G|--5--5--5--5--5--5--5--5--5--5--5--5--5--5--5--5--|
D|--7--7--7--7--7--7--7--7--5--5--5--5--5--5--5--5--|
A|--------------------------------------------------|
E|--------------------------------------------------|
    Fine, she's so fine, fine, fine

E|--------------------------3--3--3--3--3-----------|
B|--------------------------5--5--5--5--5-----------|
G|--4--4--4--4--2--2--2--2--5--5--5--5--5-----------|
D|--5--5--5--5--3--3--3--3--5--5--5--5--5-----------|
A|--5--5--5--5--3--3--3--3--------------------------|
E|--------------------------------------------------|
    She's really sweet, the finest girl you ever want to meet

E|--5--5--5--5--5--5--5--5--3--3--3--3--3--3--3--3--|
B|--6--6--6--6--4--4--4--4--5--5--5--5--5--5--5--5--|
G|--5--5--5--5--5--5--5--5--5--5--5--5--5--5--5--5--|
D|--7--7--7--7--7--7--7--7--5--5--5--5--5--5--5--5--|
A|--------------------------------------------------|
E|--------------------------------------------------|
    Oh, oh, oh, oh, oh, oh, oh, oh
E|--------------------------------------3-----------|
B|--------------------------------------5-----------|
G|--4--4--4--4--2--2--2--2--5--5--5--5--5-----------|
D|--5--5--5--5--3--3--3--3--5--5--5--5--5-----------|
A|--5--5--5--5--3--3--3--3--7--7--7--7--------------|
E|--------------------------------------------------|
    Reet petite, the finest girl you ever want to meet

[Verse 1]
E|--3-----------3-----------3-----3-----3--3--3--3--|
B|--5-----------5-----------5-----5-----5--5--5--5--|
G|--5-----------5-----------5-----5-----5--5--5--5--|
D|--5-----------5-----------5-----5-----5--5--5--5--|
A|--------------------------------------------------|
E|--------------------------------------------------|
    Have you ever met a girl for who your soul you'd give, who you'd fight for, die for, pray to god to live

E|--5--5--5--5--5--5--5--5--3--3--3--3--3--3--3--3--|
B|--6--6--6--6--6--6--6--6--5--5--5--5--5--5--5--5--|
G|--5--5--5--5--5--5--5--5--5--5--5--5--5--5--5--5--|
D|--7--7--7--7--7--7--7--7--5--5--5--5--5--5--5--5--|
A|--------------------------------------------------|
E|--------------------------------------------------|
    She's so fine, she's so fine

E|--------------------------3--3--3--3--3-----------|
B|--------------------------5--5--5--5--5-----------|
G|--4--4--4--4--2--2--2--2--5--5--5--5--5-----------|
D|--5--5--5--5--3--3--3--3--5--5--5--5--5-----------|
A|--5--5--5--5--3--3--3--3--------------------------|
E|--------------------------------------------------|
    She's really sweet, the finest girl you ever want to meet

[Verse 2]
E|--3-----------3-----------3-----3-----3--3--3--3--|
B|--5-----------5-----------5-----5-----5--5--5--5--|
G|--5-----------5-----------5-----5-----5--5--5--5--|
D|--5-----------5-----------5-----5-----5--5--5--5--|
A|--------------------------------------------------|
E|--------------------------------------------------|
    She really fills her clothes, from head to toe, I want the world to know, I love her so    

E|--5--5--5--5--5--5--5--5--3--3--3--3--3--3--3--3--|
B|--6--6--6--6--6--6--6--6--5--5--5--5--5--5--5--5--|
G|--5--5--5--5--5--5--5--5--5--5--5--5--5--5--5--5--|
D|--7--7--7--7--7--7--7--7--5--5--5--5--5--5--5--5--|
A|--------------------------------------------------|
E|--------------------------------------------------|
    She's alright, she's alright

E|--------------------------3--3--3--3--3-----------|
B|--------------------------5--5--5--5--5-----------|
G|--4--4--4--4--2--2--2--2--5--5--5--5--5-----------|
D|--5--5--5--5--3--3--3--3--5--5--5--5--5-----------|
A|--5--5--5--5--3--3--3--3--------------------------|
E|--------------------------------------------------|
    She's alright, she loves me day and night

[Chorus]
E|--5--5--5--5--5--5--5--5--3--3--3--3--3--3--3--3--|
B|--6--6--6--6--4--4--4--4--5--5--5--5--5--5--5--5--|
G|--5--5--5--5--5--5--5--5--5--5--5--5--5--5--5--5--|
D|--7--7--7--7--7--7--7--7--5--5--5--5--5--5--5--5--|
A|--------------------------------------------------|
E|--------------------------------------------------|
    Oh, oh, oh, oh, oh, oh, oh, oh

E|--------------------------------------3-----------|
B|--------------------------------------5-----------|
G|--4--4--4--4--2--2--2--2--5--5--5--5--5-----------|
D|--5--5--5--5--3--3--3--3--5--5--5--5--5-----------|
A|--5--5--5--5--3--3--3--3--7--7--7--7--------------|
E|--------------------------------------------------|
    Reet petite, the finest girl you ever want to meet

[Verse 3]
E|--3-----------3-----------3-----3-----3--3--3--3--|
B|--5-----------5-----------5-----5-----5--5--5--5--|
G|--5-----------5-----------5-----5-----5--5--5--5--|
D|--5-----------5-----------5-----5-----5--5--5--5--|
A|--------------------------------------------------|
E|--------------------------------------------------|
    She's like honey from a bee, like peaches from a tree, I love her, need her, she means so much to me  

E|--5--5--5--5--5--5--5--5--3--3--3--3--3--3--3--3--|
B|--6--6--6--6--6--6--6--6--5--5--5--5--5--5--5--5--|
G|--5--5--5--5--5--5--5--5--5--5--5--5--5--5--5--5--|
D|--7--7--7--7--7--7--7--7--5--5--5--5--5--5--5--5--|
A|--------------------------------------------------|
E|--------------------------------------------------|
    She's alright, she's got what it takes

E|--------------------------3--3--3--3--3-----------|
B|--------------------------5--5--5--5--5-----------|
G|--4--4--4--4--2--2--2--2--5--5--5--5--5-----------|
D|--5--5--5--5--3--3--3--3--5--5--5--5--5-----------|
A|--5--5--5--5--3--3--3--3--------------------------|
E|--------------------------------------------------|
    She's got what it takes, and with me she really rates

[Verse 4]
E|--3-----------3-----------3-----3-----3--3--3--3--|
B|--5-----------5-----------5-----5-----5--5--5--5--|
G|--5-----------5-----------5-----5-----5--5--5--5--|
D|--5-----------5-----------5-----5-----5--5--5--5--|
A|--------------------------------------------------|
E|--------------------------------------------------|
    Well, oh now she's my cutie, my tutti frutti, my heart, my love, my bathing beauty  

E|--5--5--5--5--5--5--5--5--3--3--3--3--3--3--3--3--|
B|--6--6--6--6--6--6--6--6--5--5--5--5--5--5--5--5--|
G|--5--5--5--5--5--5--5--5--5--5--5--5--5--5--5--5--|
D|--7--7--7--7--7--7--7--7--5--5--5--5--5--5--5--5--|
A|--------------------------------------------------|
E|--------------------------------------------------|
    She's alright, she's got what it takes

E|--------------------------3--3--3--3--3-----------|
B|--------------------------5--5--5--5--5-----------|
G|--4--4--4--4--2--2--2--2--5--5--5--5--5-----------|
D|--5--5--5--5--3--3--3--3--5--5--5--5--5-----------|
A|--5--5--5--5--3--3--3--3--------------------------|
E|--------------------------------------------------|
    She's got what it takes, and with me she really rates

[Chorus]
E|--5--5--5--5--5--5--5--5--3--3--3--3--3--3--3--3--|
B|--6--6--6--6--4--4--4--4--5--5--5--5--5--5--5--5--|
G|--5--5--5--5--5--5--5--5--5--5--5--5--5--5--5--5--|
D|--7--7--7--7--7--7--7--7--5--5--5--5--5--5--5--5--|
A|--------------------------------------------------|
E|--------------------------------------------------|
    Oh, oh, oh, oh, oh, oh, oh, oh

E|--------------------------------------3-----------|
B|--------------------------------------5-----------|
G|--4--4--4--4--2--2--2--2--5--5--5--5--5-----------|
D|--5--5--5--5--3--3--3--3--5--5--5--5--5-----------|
A|--5--5--5--5--3--3--3--3--7--7--7--7--------------|
E|--------------------------------------------------|
    Reet petite, the finest girl you ever want to meet

E|--------------------------------------3-----------|
B|--------------------------------------5-----------|
G|--4--4--4--4--2--2--2--2--5--5--5--5--5-----------|
D|--5--5--5--5--3--3--3--3--5--5--5--5--5-----------|
A|--5--5--5--5--3--3--3--3--7--7--7--7--------------|
E|--------------------------------------------------|
    Reet petite, the finest girl you ever want to meet

E|--------------------------------------3-----------|
B|--------------------------------------5-----------|
G|--4--4--4--4--2--2--2--2--5--5--5--5--5-----------|
D|--5--5--5--5--3--3--3--3--5--5--5--5--5-----------|
A|--5--5--5--5--3--3--3--3--7--7--7--7--------------|
E|--------------------------------------------------|
    Reet petite, the finest girl you ever want to meet

            
            
Suggest correction
Creating personal tab
Creating personal tab
You can edit any tab online and save it as your Personal.

You can edit, replace or remove any tab part or add personal notes – all changes will be seen only by you.

Personal tabs can be accessed anytime from any device, even offline.
Learn more »
Give kudos to tab author, rate the tab!
1 2 3 4 5
comments
print report bad tab
guest
You may want to rate the tab now too:
select rating
Wanna post a correction for this tab? Suggest correction