Oops, an error
Loading. Please wait.

Reet Petite bass

version 2
version 2

Whole song

Interactive

13 views 6 this week
no commentswrite comment
1 2 3 4 5
3 more votes to show rating
add to favorites
×
Save as Personal and add changes to this tab that will be seen only by you. Learn more ›
×
You can save this tab as Personal to edit and correct it or add notes. All changes will be seen only by you. Learn more »
launch autoscroll
font size
0
reset
guitar tuner
edit
Autoscroll
slow
fast
+/-
esc
set tempo
stop
Author
Reet Petite
Single by Jackie Wilson originally released in 1957 reached #6 in UK
Re-released in 1986 peaked at #1 in UK for 4 weeks. Tab by bass50611.
Not exact more of an easy to remember version. Great Video on Youtube.
Play as a walking bassline and Symbols ‘.’ Are pause dots

Intro:
G|---------------|--------------------------7-10-7------|
D|-BRASS SECTION-|-------5-8-5---------7-10--------10-7-|
A|-----START-----|---5-8-------8-5---8------------------|
E|---------------|-6------------------------------------|

Chorus 1:
G|--------7-10-7--------------7-10-7-----------------------|
D|---7-10--------10-7----7-10--------10-7--------5-8-5-----|
A|-8-------------------8---------------------5-8-------8-5-|
E|-----------------------------------------6---------------|

                                                (Break)
G|--------7-10-7-----------------------------------|
D|---7-10--------10-7---------------------7-10-7---|
A|-8------------------------------------8--------8-|
E|----------------------8---8----6---6-------------|

Verse 1:
G|--------7-10-7--------------7-10-7-----------------------|
D|---7-10--------10-7----7-10--------10-7--------5-8-5-----|
A|-8-------------------8---------------------5-8-------8-5-|
E|-----------------------------------------6---------------|

                                                    (Break)
G|--------7-10-7---------------------------------------|
D|---7-10--------10-7----------7--------5-----7-10-7---|
A|-8----------------------7-10------5-8-----8--------8-|
E|----------------------8---------6--------------------|

Chorus 2:
G|--------------------------7-10-7--------------------------|
D|-------5-8-5---------7-10--------10-7---------7---------5-|
A|---5-8-------8-5---8---------------------7-10-------5-8---|
E|-6-------------------------------------8----------6-------|

G|--------7-10-7------|
D|---7-10--------10-7-|
A|-8------------------|
E|--------------------|

Verse 2:
  ‘.’  ‘.’
G|------------------------------------------------7-10-7----------------|
D|-----------------------------5-8-5---------7-10--------10-7---------7-|
A|-8----8----8--8--8--8----5-8-------8-5---8---------------------7-10---|
E|-----------------------6-------------------------------------8--------|

G|------------------7-10-7------|
D|-------5-----7-10--------10-7-|
A|---5-8-----8------------------|
E|-6----------------------------|

Verse 3:
  ‘.’  ‘.’
G|------------------------------------------------7-10-7----------------|
D|-----------------------------5-8-5---------7-10--------10-7---------7-|
A|-8----8----8--8--8--8----5-8-------8-5---8---------------------7-10---|
E|-----------------------6-------------------------------------8--------|

                     (Break)
G|----------------------|
D|-------5-----7-10-7---|
A|---5-8-----8--------8-|
E|-6--------------------|

Chorus 2:
G|--------------------------7-10-7--------------------------|
D|-------5-8-5---------7-10--------10-7---------7---------5-|
A|---5-8-------8-5---8---------------------7-10-------5-8---|
E|-6-------------------------------------8----------6-------|

G|--------7-10-7------|
D|---7-10--------10-7-|
A|-8------------------|
E|--------------------|

Interlude:
G|--------------------------7-10-7------|
D|-------5-8-5---------7-10--------10-7-|
A|---5-8-------8-5---8------------------|
E|-6------------------------------------|

Verse 4:
  ‘.’  ‘.’
G|------------------------------------------------7-10-7----------------|
D|-----------------------------5-8-5---------7-10--------10-7---------7-|
A|-8----8----8--8--8--8----5-8-------8-5---8---------------------7-10---|
E|-----------------------6-------------------------------------8--------|

G|------------------7-10-7------|
D|-------5-----7-10--------10-7-|
A|---5-8-----8------------------|
E|-6----------------------------|

Verse 5:
  ‘.’  ‘.’  ‘.’    ‘.’
G|-------------------------------------------------7-10-7----------------|
D|------------------------------5-8-5---------7-10--------10-7---------7-|
A|-8----8----8----8-8---8---5-8-------8-5---8---------------------7-10---|
E|------------------------6-------------------------------------8--------|

                     (Break)
G|----------------------|
D|-------5-----7-10-7---|
A|---5-8-----8--------8-|
E|-6--------------------|

Chorus 2:
G|--------------------------7-10-7--------------------------|
D|-------5-8-5---------7-10--------10-7---------7---------5-|
A|---5-8-------8-5---8---------------------7-10-------5-8---|
E|-6-------------------------------------8----------6-------|

G|--------7-10-7------|
D|---7-10--------10-7-|
A|-8------------------|
E|--------------------|

Outro:
G|-----------------------------7-10-7------|
D|--------7---------5-----7-10--------10-7-|
A|---7-10-------5-8-----8------------------|
E|-8----------6----------------------------|

                                     (END)
G|--------------------------------------|
D|--------7---------5-----7-10-7--------|
A|---7-10-------5-8-----8---------8---8-|
E|-8----------6-------------------------|

Symbols ‘.’ Are Pause Dots

            
            
Suggest correction
Creating personal tab
Creating personal tab
You can edit any tab online and save it as your Personal.

You can edit, replace or remove any tab part or add personal notes – all changes will be seen only by you.

Personal tabs can be accessed anytime from any device, even offline.
Learn more »
Give kudos to tab author, rate the tab!
1 2 3 4 5
comments
print report bad tab
guest
You may want to rate the tab now too:
select rating
Wanna post a correction for this tab? Suggest correction