Oops, an error
Loading. Please wait.

Lemon Tree Tab

3,359 views 1 this week
no commentswrite comment
1 2 3 4 5
3 more votes to show rating
add to favorites
launch autoscroll
font size
0
reset
how to read this tab
guitar tuner
Autoscroll
slow
fast
+/-
esc
set tempo
stop
Help us to improve Ultimate-Guitar.com Take our survey!
×
Author
Capo
1st fret
G'day,
Here's a song by Jack's Castle called Lemon Tree, great song, get on it!! :P
any problems with lyrics or chords just tell me, i'm happy to fix it.

www.myspace.com/jackscastletheband


Enjoy

Capo 1st.

Intro: x4
e----3----2----2----0------------------------------------------|
B----3----3----3----3------------------------------------------|
G----0----0----4----4------------------------------------------|
D--------------------------------------------------------------|
A--------------------------------------------------------------|
E--------------------------------------------------------------|

Verse: x2
e----3----2----2----0------------------------------------------|
B----3----3----3----3------------------------------------------|
G----0----0----4----4------------------------------------------|
D--------------------------------------------------------------|
A--------------------------------------------------------------|
E--------------------------------------------------------------|

I can hear wispers everywhere,
I will wait, for this endlesness to brake,

Pre Chorus: x2

e------------------2--------------------------------------------|
B---1----1---------3--------------------------------------------|
G--------2---------2--------------------------------------------|
D---2----2---2--------------------------------------------------|
A---3--------2--------------------------------------------------|
E---------------------------------------------------------------|
    C    Am  Em    D

And i am waking so early these days,
And i have been making a change to my old ways,

Chorus: x4

e----3-----3-----3----3----3------------------------------------|
B----3-----3-----3----3----3------------------------------------|
G----------2---------------2------------------------------------|
D----------------2----2-----------------------------------------|
A----2-----------2----3-----------------------------------------|
E----3-----2----------------------------------------------------|

When you dance with me wont you stay under that lemon tree,
When you sing with me wont you let me set you free,
And we've lost our sense and we've lost our time,
Think of all the things we'll find,
And i will close my eyes, when your under that lemon tree with me,

Verse: x4

e----3----2----2----0------------------------------------------|
B----3----3----3----3------------------------------------------|
G----0----0----4----4------------------------------------------|
D--------------------------------------------------------------|
A--------------------------------------------------------------|
E--------------------------------------------------------------|

Here we are now, quiet some how,
Drinking jin, ploundering everything,

Pre Chorus: x2

e------------------2--------------------------------------------|
B---1----1---------3--------------------------------------------|
G--------2---------2--------------------------------------------|
D---2----2---2--------------------------------------------------|
A---3--------2--------------------------------------------------|
E---------------------------------------------------------------|
    C    Am  Em    D

My feet are aching, but they cary me instead,
And it wont be so long, till i'm lying in my bed,

Chorus: x4

e----3-----3-----3----3----3------------------------------------|
B----3-----3-----3----3----3------------------------------------|
G----------2---------------2------------------------------------|
D----------------2----2-----------------------------------------|
A----2-----------2----3-----------------------------------------|
E----3-----2----------------------------------------------------|

When you dance with me wont you stay under that lemon tree,
When you sing with me wont you let me set you free,
And we've lost our sense and we've lost our time,
Think of all the things we'll find,
And i will close my eyes, when your under that lemon tree with me,

Solo: x2

e----3----2----2----0------------------------------------------|
B----3----3----3----3------------------------------------------|
G----0----0----4----4------------------------------------------|
D--------------------------------------------------------------|
A--------------------------------------------------------------|
E--------------------------------------------------------------|

Bridge: x8

e----3----3----3----3------------------------------------------|
B----3----3----3----3------------------------------------------|
G---------2----------------------------------------------------|
D----2---------2-----------------------------------------------|
A----2---------3----2------------------------------------------|
E-------------------3------------------------------------------|

I saw you broken down,
Couldn't think of what to say,
I heard you come through laughing,
Things will never be the same,
You will walk through secret gardens,
Getting by the light of day,
Get out and start to listen,
Let the whole world slip away,

Chorus: x5

e----3-----3-----3----3----3------------------------------------|
B----3-----3-----3----3----3------------------------------------|
G----------2---------------2------------------------------------|
D----------------2----2-----------------------------------------|
A----2-----------2----3-----------------------------------------|
E----3-----2----------------------------------------------------|

When you dance with me wont you stay under that lemon tree,
When you sing with me wont you let me set you free,
And we've lost our sense and we've lost our time,
Think of all the things we'll find,
And i will close my eyes, when your under that lemon tree,
And i will close my eyes, when your under that lemon tree with me.


Please Rate!!
Cheers
Suggest correction
Give kudos to tab author, rate the tab!
1 2 3 4 5
comments
print report bad tab
guest
You may want to rate the tab now too:
select rating
Wanna post a correction for this tab? Suggest correction