Oops, an error
Loading. Please wait.

Dark Blue Bass Tab

version 1
version 1

Whole song

Interactive

7,616 views 1 this week
no commentswrite comment
1 2 3 4 5
accurate
x 9
add to favorites
launch autoscroll
font size
0
reset
guitar tuner
Autoscroll
slow
fast
+/-
esc
set tempo
stop
Help us to improve Ultimate-Guitar.com Take our survey!
×
Song: Dark Blue
Artist: Jack’s Mannequin
Album: Everything In Transit

Tabbed By: Michael Yoshinaga

Intro:          Bass enters at 0:06
G:-------------------------------------------------------------|
D:-------------------------------------------------------------| Continue
A:-----------------------------------------------/12-10--------|  Down
E:-8-8-8-8-8-8-8-8-8-8-8-8-10-11--4-4-4-4-4-4-4-4-------13-11--|

-----------------------------------------------------------------|
-----------------------------------------------------------------| Cotinue
-6-6-6-6-6-6-6-6-6-6-6-6-6-6-6-6---------------------------------|  Down
---------------------------------6-6-6-6-6-6-6-6-6-6-6-6-6-6-6-6-|

----------------------------------------------|
----------------------------------------------|
----------------------------------------------|
-8-8-8-8-8-8-8-8-8-8-8-8-8-8-8-8--4--6--8--11-|

Verse # 1:  0:24
G:-----------------------------------------------------------------|
D:-----------------------------------------------------------------| Continue
A:-6-6-6-6-6-6-6-6-6-6-6-6-6-6-6-6---------------------------------|  Down
E:---------------------------------6-6-6-6-6-6-6-6-6-6-6-6-6-6-6-6-|

-------------------------------------------------------------------|
-------------------------------------------------------------------|
-------------------------------------------------------------------|
-8-8-8-8-8-8-8-8-8-8-8-8-8-8-8-8--4-4-4-4-4-4-4-4-6-6-6-6-6-6-6-6--|


Part two of Verse one, its basically the same thing except the end which is basically a 
small pre chorus
G:-----------------------------------------------------------------|
D:-----------------------------------------------------------------| Continue
A:-6-6-6-6-6-6-6-6-6-6-6-6-6-6-6-6---------------------------------|  Down
E:---------------------------------6-6-6-6-6-6-6-6-6-6-6-6-6-6-6-6-|

---------------------------------------------------------------------------|
---------------------------------------------------------------------------|
---------------------------------------------------------------------8--11-|
-8-8-8-8-8-8-8-8-8-8-8-8-8-8-8-8--4-4-4-4-4-4-4-4-6-6-6-6-6-6-6-6-8--------|

Chorus # 1:  0:53
G:----------------------------------------|
D:----------------------------------------|
A:-6--------------------------------------|  x2
E:-----------6--------8--------4--------6-|

Post Chorus  1:17
G:-----------------------------------------------------------------|
D:-----------------------------------------------------------------| Continue
A:-6-6-6-6-6-6-6-6-6-6-6-6-6-6-6-6---------------------------------|  Down
E:---------------------------------6-6-6-6-6-6-6-6-6-6-6-6-6-6-6-6-|

----------------------------------------------|
----------------------------------------------|
----------------------------------------------|
-8-8-8-8-8-8-8-8-8-8-8-8-8-8-8-8--4--6--8--11-|

Verse #2  1:29
Is the exact same as verse 1

Chorus # 2:  1:58
Exactly the same as the first

Bridge:  2:22
G:----------------------------|
D:----------------------------|
A:----------------------6-----| x2
E:-8--6--4--------6--8--------|

Bridge Part 2:  2:35
G:-----------------------------------------------------------|
D:-----------------------------------------------------------|
A:-----------------------------------------------------------| x3
E:-4-4-4-4-4-4-4-4-4-4-4-4-4-4-4-4-6-6-6-6-6-8-8-8-8-8-6-6-6-|

-------------------------------------|
-------------------------------------|
-------------------------------------|
-4-4-4-4-4-4-4-4-4-4-4-4-4-4-4-4-/6--|

2:58
G:--------------------------------|
D:--------------------------------|
A:-6------------------------------|
E:-----------6--------8--------4--|

Chorus #3:  3:10
G:----------------------------------------|
D:----------------------------------------|
A:-6--------------------------------------|  x2
E:-----------6--------8--------4--------6-|

Post Chorus:  3:33
G:-----------------------------------------------------------------|
D:-----------------------------------------------------------------|
A:-6-6-6-6-6-6-6-6-6-6-6-6-6-6-6-6---------------------------------|
E:---------------------------------6-6-6-6-6-6-6-6-6-6-6-6-6-6-6-6-|  continue down

--------------------------------------------------------------|
--------------------------------------------------------------|
-------------------------------------------------/12-10-------|
-8-8-8-8-8-8-8-8-8-8-8-8-8-8-8-8--4-4-4-4-4-4-4-4-------13-11-|

Outro:  3:45
G:-----------------------------------------------------------------|
D:-----------------------------------------------------------------|
A:-6-6-6-6-6-6-6-6-6-6-6-6-6-6-6-6---------------------------------|
E:---------------------------------6-6-6-6-6-6-6-6-6-6-6-6-6-6-6-6-|  continue down

----------------------------------------------|
----------------------------------------------|
----------------------------------------------|
-8-8-8-8-8-8-8-8-8-8-8-8-8-8-8-8--4--6--8--11-|

Fin
Suggest correction
What's this?
You can suggest a correction to this tab. Community and Mods will review your correction and vote to approve or reject it.
comments
print report bad tab
guest
You may want to rate the tab now too:
select rating
Please do not post tabs as comments. Select "correction" instead!