Oops, an error
Loading. Please wait.

Dark Blue Tab

version 3
version 3

Whole song

Interactive

2,463 views 3 this week
1 commentread comment
1 2 3 4 5
please rate
add to favorites
launch autoscroll
font size
0
reset
how to read this tab
guitar tuner
Tab Pro tools
  • play this tab
  • loop segment
  • change instrument
  • show fretboard
  • metronome
×
Best way to learn
"Dark Blue"
Autoscroll
slow
fast
+/-
esc
set tempo
stop
Contributor
-------------------------------------------------------------------------------
                             DARK BLUE - Jack's Mannequin
-------------------------------------------------------------------------------


Tuning: Standard


    INTRO
e|----10-7----10-7------|---10-7-----10-7-----|---10-7----10-7---------7-10-|
B|--7------7-------7--9-|-7------7--------7-9-|-7------7-------7-9-7-9------|
G|----------------------|---------------------|-----------------------------|
D|----------------------|---------------------|-----------------------------|
A|----------------------|---------------------|-----------------------------|
E|----------------------|---------------------|-----------------------------|



       -VERSE-
     D                   A
e|--------------------------------------------------------------------|
B|---7----------------------------------------------------------------|
G|---7----------------------------------------------------------------|
D|---7-------------------7--------------------------------------------|
A|---5-------------------7--------------------------------------------|
E|-----------------------5--------------------------------------------|
   1) I have, I have you breathing down my neck, breathing down my neck.
 2)I'll wait (I'll wait) ambulance to come (ambulance to come)

           Bm                          G                   A
e|-------------------------------------------------------------------------|
B|-------------------------------------------------------------------------|
G|----------4--------------------------------------------------------------|
D|----------4--------------------------5-------------------7---------------|
A|----------2--------------------------5-------------------7---------------|
E|-------------------------------------3-------------------5---------------|
1)I don't, don't know what you could possibly expect under this condition so,
2)Pick us up off the floor What did you possibly expect under this condition





     -BRIDGE-  
    Bm         Em              G
e|--------------------------------------------------------|
B|--------------------------------------------------------|
G|--4-----------9-----------------------------------------|
D|--4-----------9--------------5--------------------------|
A|--2-----------7--------------5--------------------------|
E|-----------------------------3--------------------------|
     Slow down, This night's a perfect shade of....




     -CHORUS-
   D                               A
e|------------------------------------------------------------------|
B|-7----------------------------------------------------------------|
G|-7----------------------------------------------------------------|
D|-7-------------------------------7--------------------------------|
A|-5-------------------------------7--------------------------------|
E|---------------------------------5--------------------------------|
    Dark blue, dark blue, have you ever been alone in a crowded room?

          Bm                       G                     A
e|--------------------------------------------------------------------|
B|--------------------------------------------------------------------|
G|--------4-----------------------------------------------------------|
D|--------4------------------------5---------------------7------------|
A|--------2------------------------5---------------------7------------|
E|---------------------------------3---------------------5------------|
When im Here with you. I said the world could be burning, burning down




    -SOLO-
 (not much of a solo)
e|------------------------------------------------------------------------|
B|------10-10-10-10-7-7-10-10-10-10-10-10-7-7-7---------------------------|
G|------------------------------------------------------------------------|
D|------------------------------------------------------------------------|
A|------------------------------------------------------------------------|
E|------------------------------------------------------------------------|



    -Outro-
     D
e|---------------------------------------|
B|---------------------------------------|
G|---7-----------------------------------|
D|---7-----------------------------------|
A|---5-----------------------------------|
E|---------------------------------------|
If you've every been alone (you'll know) 

e|----10-7----10-7------|---10-7-----10-7-----|---10-7----10-7---------7-10-|
B|--7------7-------7--9-|-7------7--------7-9-|-7------7-------7-9-7-9------|
G|----------------------|---------------------|-----------------------------|
D|----------------------|---------------------|-----------------------------|
A|----------------------|---------------------|-----------------------------|
E|----------------------|---------------------|-----------------------------|
Dark blue...if you've ever been alone, you'll know (you'll know)



Intro  x 1
Verse  x 2
Chorus x 2
Verse  x 2
Chorus x 2
Verse  x 2
Solo   x 1
Chorus x 2
Outro  x 1


ENJOY!!



comments
We did not receive enough feedback on this tab! Please rate:
print report bad tab
1 2 3 4 5
1 comment total.
0 reply
Essiath13 wrote on May 8 2009, 06:54 pm

The intro, and the second part of the outro should be one string lower like this...

sorry!
E|----------------------|---------------------|-----------------------------|
B|----10-7----10-7------|---10-7-----10-7-----|---10-7----10-7---------7-10-|
G|--7------7-------7--9-|-7------7--------7-9-|-7------7-------7-9-7-9------|
D|----------------------|---------------------|-----------------------------|
A|----------------------|---------------------|-----------------------------|
E|----------------------|---------------------|-----------------------------|

I want to post or [tab]
guest
You may want to rate the tab now too:
select rating
Please do not post tabs as comments. Select "correction" instead!