Oops, an error
Loading. Please wait.

Im Ready Tab

7,331 views 3 this week
no commentswrite comment
1 2 3 4 5
1 last vote to show rating
add to favorites
launch autoscroll
font size
0
reset
how to read this tab
guitar tuner
Autoscroll
slow
fast
+/-
esc
set tempo
stop
Help us to improve Ultimate-Guitar.com Take our survey!
×
Author
Song-Band: I'm Ready - Jack's Mannequin
Tabbed by: Edsel
Email: gedsel@gmail.com

Tuning:  Drop D tuning just for the last note. otherwise you can just use standard.

My first tab.

Intro/Verse
e-|----------------------------------------------------------------------|
B-|----------------------------------------------------------------------|
G-|----8--8--8--8-12-12-12-12-10-10-10-10-10-10-10-10--------------------|
D-|----8--8--8--8-12-12-12-12-10-10-10-10-10-10-10-10--------------------|
A-|----6--6--6--6-10-10-10-10--8--8--8--8--8--8--8--8--------------------|
D-|----------------------------------------------------------------------|

Chorus
e-|----------------------------------------------------------------------|
B-|----------------------------------------------------------------------|
G-|----8--8--8--8-10-10-10-10-12-12-12-12-15-15-15-15--------------------|
D-|----8--8--8--8-10-10-10-10-12-12-12-12-15-15-15-15--------------------|
A-|----6--6--6--6--8--8--8--8-10-10-10-10-13-13-13-13--------------------|
D-|----------------------------------------------------------------------|

Interlude
e-|----------------------------------------------------------------------|
B-|----------------------------------------------------------------------|
G-|----8----------12----------15----------17-----------------------------|
D-|----8----------12----------15----------17-----------------------------|
A-|----6----------10----------13----------15-----------------------------|
D-|----------------------------------------------------------------------|

Riff
e-|----------------------------------------------------------------------|
B-|----6-6-4-4-3-3-4-4---------------------------------------------------|
G-|----------------------------------------------------------------------|
D-|----------------------------------------------------------------------|
A-|----------------------------------------------------------------------|
D-|----------------------------------------------------------------------|

Last Chorus
e-|-------------------------------------------------------------|
B-|---11-11-10-10-8-8-6-6-4-4-3-3-1-1---------------------------|
G-|-----------------------------------3-3-2-3-2-3-5-3-2-3-------|
D-|---------------------------------------------------XXXXXXXX--|
A-|---------------------------------------------------XXXXXXXX--|
D-|-------------------------------------------------------------|XXXXXXXX-(2nd guitar)

then it goes back to regular chorus but he sometimes plays this
e-|----------------------------------------------------------------------|
B-|---11-11-10-10-8-8-6-6-4-4-3-3-1-1------------------------------------|
G-|----------------------------------------------------------------------|
D-|----------------------------------------------------------------------|
A-|----------------------------------------------------------------------|
D-|----------------------------------------------------------------------|

End
e-|----------------------------------------------------------------------|
B-|----------------------------------------------------------------------|
G-|----8-----------------------------------------------------------------|
D-|----8-----------------------------------------------------------------|
A-|----6------1----------------------------------------------------------|
D-|------------------1---------------------------------------------------|
Suggest correction
Give kudos to tab author, rate the tab!
1 2 3 4 5
comments
print report bad tab
guest
You may want to rate the tab now too:
select rating
Wanna post a correction for this tab? Suggest correction