Oops, an error
Loading. Please wait.

Miss Delaney Tab

1,536 views 1 this week
no commentswrite comment
1 2 3 4 5
accurate
x 4
add to favorites
launch autoscroll
font size
0
reset
how to read this tab
guitar tuner
Autoscroll
slow
fast
+/-
esc
set tempo
stop
Help us to improve Ultimate-Guitar.com Take our survey!
×
Author
Difficulty
----------------------------------------------------------------------------
                             MISS DELANEY – Jack’s Mannequin
----------------------------------------------------------------------------
Tabbed by: surfer182blink 

Tuning: Standard

Intro:
e|-------------------------------------------------------------------------|
B|-------------------------------------------------------------------------|
G|---------------5-x8--8—x8------------------------------------------------|
D|-8-x16--5-x16--5-----8---------------------------------------------------|
A|-8------5------3-----6---------------------------------------------------|
E|-6------3----------------------------------------------------------------|

Verse: x2
e|-------------------------------------------------------------------------|
B|-------------------------------------------------------------------------|
G|---------------5-x16-10-x16----------------------------------------------|
D|-8-x16--5-x16--5-----10--------------------------------------------------|
A|-8------5------3-----8---------------------------------------------------|
E|-6------3----------------------------------------------------------------|

Pre Chorus:
e|-------------------------------------------------------------------------|
B|-------------------------------------------------------------------------|
G|-8-x8--5-x8--10-x16------------------------------------------------------|
D|-8-----5-----10----------------------------------------------------------|
A|-6-----3-----8-----------------------------------------------------------|
E|-------------------------------------------------------------------------|

Chorus: x3
e|--------------------------¦--on-4th-time:--------------------------------|
B|--------------------------¦----------------------------------------------|
G|-------10-x8--------8-x8--¦-------------------10-x8---------------88-8-x6|
D|-8-x8--10-----5-x8--8-----¦-------------8-x8--10-----55-55-55-55--88-8---|
A|-8-----8------5-----6-----¦-------------8-----8------55-55-33-55--66-6---|
E|-6------------3-----------¦-------------6------------33-33-33-33---------|
                                                         xx   xx      xx
Play: 
Intro 
Verse x1
Pre Chorus 
Chorus 

Interlude: x2
e|-------------------------------------------------------------------------|
B|-------------------------------------------------------------------------|
G|-------10-x8--------8-x8-------------------------------------------------|
D|-8-x8--10-----5-x8--8----------------------------------------------------|
A|-8-----8------5-----6----------------------------------------------------|
E|-6------------3----------------------------------------------------------|

Interlude solo notes (Played repeatedly over interlude):
e|-------------------------------------------------------------------------|
B|----11-10----------------------------------------------------------------|
G|-10-------10-------------------------------------------------------------|
D|-------------------------------------------------------------------------|
A|-------------------------------------------------------------------------|
E|-------------------------------------------------------------------------|

e|-------------------------------------------------------------------------|
B|-------------------------------------------------------------------------|
G|-5-x8--7-x8--------------10-x16------------------------------------------|
D|-5-----7-----5-let-ring--10----------------------------------------------|
A|-3-----5-----5-----------8-----------------------------------------------|
E|-------------3-----------------------------------------------------------|

Play:
Chorus

End on:
e|-------------------------------------------------------------------------|
B|-------------------------------------------------------------------------|
G|-------------------------------------------------------------------------|
D|-8-----------------------------------------------------------------------|
A|-8-----------------------------------------------------------------------|
E|-6-----------------------------------------------------------------------|



Suggest correction
comments
print report bad tab
guest
You may want to rate the tab now too:
select rating
Please do not post tabs as comments. Select "correction" instead!