Oops, an error
Loading. Please wait.

Rescued Tab

version 1
version 1

Whole song

Interactive

10,654 views 1 this week
no commentswrite comment
1 2 3 4 5
x 3
add to favorites
launch autoscroll
font size
0
reset
how to read this tab
guitar tuner
Autoscroll
slow
fast
+/-
esc
set tempo
stop
Help us to improve Ultimate-Guitar.com Take our survey!
×
Author
Difficulty
intermediate
Rescued by Jack’s Mannequin
Tabbed by:jkuizon_23@yahoo.com


standard tuning

intro 

E|--0-0-0-0-0--0-0-0-0-0------|
B|--0-0-0-0-0--5-5-5-5-5------|
G|--4-4-4-4-4--4-4-4-4-4------|  2x
D|--2-2-2-2-2--2-2-2-2-2------|
A|--2-2-2-2-2--0-0-0-0-0------|
E|--0-0-0-0-0--0-0-0-0-0------|


Verse

E|--0-0-0-0-0--0-0-0-0-0------|
B|--0-0-0-0-0--5-5-5-5-5------|
G|--4-4-4-4-4--4-4-4-4-4------|  
D|--2-2-2-2-2--2-2-2-2-2------|
A|--2-2-2-2-2--0-0-0-0-0------|
E|--0-0-0-0-0--0-0-0-0-0------|
Two to one
Static to the sound of you and I
Undone for the last time
And there this was
Harder than the bottom of your
Swimming pool some September

E|---0---0-------------------|
B|---0---0-------------------|
G|---4---4-------------------|  
D|---4---2-------------------|
A|---2---0-------------------|
E|---0---0-------------------|

And don't you think
I wish that I could stay


Chorus

E|---0-0--0-0--0-0--0-0--------|
B|---0-0--0-0--0-0--0-0--------|
G|---4-4--4-4--4-4--4-4--------|  
D|---2-2--2-2--2-2--4-4--------|
A|---0-0--2-2--4-4--2-2--------|
E|---0-0--0-0--0-0--0-0--------|


Your lips give you away
I can hear it, a jet engine
Through the center of the storm
And I'm thinking I'd
Prefer not to be rescued

E|--0h2--4--2--0--------------|
B|----------------4--0--------|
G|----------------------------|  
D|----------------------------|
A|----------------------------|
E|----------------------------|

(Repeat verse)
Two to none
Roads that lead away from this
I'm following myself just this once
And I got spun
It appears you're spun as well
It happens when you're paying attention
This could take all year, but

(Repeat Chorus)
When it's quiet, does she hear me?
A jet is sent to the
Center of the storm
And I'm thinking I'd
Prefer not to be rescued

(repeat chorus)
And ohh-oh, I can feel her, she's dying
Just to keep me cool
I'm finally numb, so please
Don't get me rescued... 

E|---0----|
B|---0----|
G|---2----|  
D|---2----|
A|---0----|
E|---0----|

rescued...

Bridge

E|---0-0--0-0--0-0--0-0--------|
B|---0-0--0-0--0-0--0-0--------|
G|---4-4--4-4--4-4--4-4--------|  2x
D|---2-2--2-2--2-2--4-4--------|
A|---0-0--2-2--4-4--2-2--------|
E|---0-0--0-0--0-0--0-0--------|

E|--0-0-0---0-0---------|
B|--0-0-0---0-0---------|
G|--4-4-4---4-4---------|  
D|--2-2-2---2-2---------|
A|--2-2-2---0-0---------|
E|--0-0-0---0-0---------|

And it's unclear

E|--0-0-0---0-0---------|
B|--0-0-0---0-0---------|
G|--4-4-4---4-4---------|  
D|--2-2-2---4-4---------|
A|--4-4-4---2-2---------|
E|--0-0-0---0-0---------|

But this may be my last song, Ohh-Oh,

(repeat chorus)
I, I can tell
She's raising hell to give to me
But she got me warm
So please don't get me rescued

(repeat chorus)
And ohhh-oh, say you'll miss me (say you'll miss me) one last time
I'll be strong, but whatever you do
Please don't get me rescued...
E|---0-0--0-0--0-0--0-0--0-0--0-0--|
B|---0-0--0-0--0-0--0-0--0-0--0-0--|
G|---4-4--4-4--4-4--4-4--4-4--4-4--|  
D|---2-2--2-2--2-2--4-4--2-2--4-4--|
A|---0-0--2-2--4-4--2-2--0-0--2-2--|
E|---0-0--0-0--0-0--0-0--0-0--0-0--|
Cause I'm feeling like
I might need to be near you


E|---0-0--0-0--0-0--0-0--0-0--0-0--|
B|---0-0--0-0--0-0--0-0--0-0--0-0--|
G|---4-4--4-4--4-4--4-4--4-4--4-4--|  
D|---2-2--2-2--2-2--4-4--2-2--4-4--|
A|---0-0--2-2--4-4--2-2--0-0--2-2--|
E|---0-0--0-0--0-0--0-0--0-0--0-0--|
And I feel alright, so please
Don't get me rescued...

E|-----0-0--0-0--|
B|-----0-0--0-0--|
G|-----4-4--4-4--|  2x
D|-----2-2--4-4--|
A|-----0-0--2-2--|
E|-----0-0--0-0--|

End with 

E|---0-0--|
B|---0-0--|
G|---4-4--|  
D|---2-2--|
A|---0-0--|
E|---0-0--|

Suggest correction
Give kudos to tab author, rate the tab!
1 2 3 4 5
comments
print report bad tab
guest
You may want to rate the tab now too:
select rating
Wanna post a correction for this tab? Suggest correction