Oops, an error
Loading. Please wait.

Restless Dream Tab

17,153 views 9 this week
1 commentread comment
1 2 3 4 5
x 18
add to favorites
launch autoscroll
font size
0
reset
how to read this tab
guitar tuner
Autoscroll
slow
fast
+/-
esc
set tempo
stop
Help us to improve Ultimate-Guitar.com Take our survey!
×
Author
Tuning
E A D G B E
-------------------------------------------------------------------------------
                     Jack's Mannequin - Restless Dream
-------------------------------------------------------------------------------
Tabbed by: Ace


Intro:
     G             C     Cadd9   G
e|-----------0---------------------------------------------------------------|
B|---3-------------1-------3-----0-------0-----0-------0---------------------|
G|-------0-------0-----0-------0-----0-------0-----0-------0-----------------|
D|-----0-------0-----2-------2-----0-------0-----0-------0-------------------|
A|---2-----2-------3-----3---------------------------------------------------|
E|-------------------------------3-----3-------3-----3-----------------------|

     Em            D/F#          G
e|---------------------------------------------------------------------------|
B|-----------0---------------------------------------------------------------|
G|---0-------------2-------0-----0-------0-----0-------0---------------------|
D|-------2-------2-----0-------0-----0-------0-----0-------0-----------------|
A|-----2-------2-----0-------0-----2-------2-----2-------2-------------------|
E|---0-----0-------2-----2-------3-----3-------3-----3-----------------------|

Verse:
     G             C     Cadd9   G
e|-----------0---------------------------------------------------------------|
B|---3-------------1-------3-----0-------0-----0-------0---------------------|
G|-------0-------0-----0-------0-----0-------0-----0-------0-----------------|
D|-----0-------0-----2-------2-----0-------0-----0-------0-------------------|
A|---2-----2-------3-----3---------------------------------------------------|
E|-------------------------------3-----3-------3-----3-----------------------|

     Em            D/F#          G
e|---------------------------------------------------------------------------|
B|-----------0-------------3-----0-------0-----0-------0---------------------|
G|---0-------------2-----------------0-------0-----0-------0-----------------|
D|-------2-------2-----0-------0---0-------0-----0-------0-------------------|
A|-----2-------2-----0-------0-----------------------------------------------|
E|---0-----0-------2-----2-------3-----3-------3-----3-----------------------|

     G             C     Cadd9   G
e|-----------0---------------------------------------------------------------|
B|---3-------------1-------3-----0-------0-----0-------0---------------------|
G|-------0-------0-----0-------0-----0-------0-----0-------0-----------------|
D|-----0-------0-----2-------2-----0-------0-----0-------0-------------------|
A|---2-----2-------3-----3---------------------------------------------------|
E|-------------------------------3-----3-------3-----3-----------------------|

     Em            D/F#          G
e|---------------------------------------------------------------------------|
B|-----------0---------------------------------------------------------------|
G|---0-------------2-------0-----0-------0-----0-----------------------------|
D|-------2-------2-----0-------0-----0-------0-------------------------------|
A|-----2-------2-----0-------0-----2-------2-------0-2-----------------------|
E|---0-----0-------2-----2-------3-----3-------3-3---------------------------|


Chorus:
     c             Em            D/F#          G
e|---------------------------------------------------------------------------|
B|---1-------1-----0-------0-------------------------------------------------|
G|-------0-------0-----0-------0-2-------0-----0-------0---------------------|
D|-----2-------2-----2-------2-------0-------0-----0-------0-----------------|
A|---3-----3-------2-----2---------0-------0-----2-------2-------------------|
E|-------------------------------2-----2-------3-----3-----------------------|

     C             G             Em            D
e|---------------------------------------0-----2-------2---------------------|
B|---1-------1-----0-------0-----0-----------------3-------3-----------------|
G|-------0-------0-----0-------0-----0-------0---2-------2-------------------|
D|-----2-------2-----0-------0-----2-------2---0-----0-----------------------|
A|---3-----3-----------------------------------------------------------------|
E|-----------------3-----3-------0-----0-------------------------------------|

     C             Em            D/F#          G
e|---------------------------------------------------------------------------|
B|---1-------1-----0-------0-------------------------------------------------|
G|-------0-------0-----0-------0-2-------0-----0-------0---------------------|
D|-----2-------2-----2-------2-------0-------0-----0-------0-----------------|
A|---3-----3-------2-----2---------0-------0-----2-------2-------------------|
E|-------------------------------2-----2-------3-----3-----------------------|

     C             G             Em            G               C~    D~
e|-------------------------------0--------0----3-------------|---------------|
B|---1-------1-----3-------3---------------------------3-----|-1~--0-3~------|
G|-------0-------0-----0-------0-----0-------0-----0-------0-|-0~----2~--0---|
D|-----2-------2-----0-------0-----2-------2-----0-------0---|-------0~------|
A|---3-----3-------------------------------------------------|-3~------------|
E|-----------------3-----3-------0-----0-------3-----3-------|---------------|

Bridge:
           C             G             D             G
e|-------|-----------------------------2-------2-----3-------3---------------|
B|-------|-1-------1-----3-------3---------3-------2-----3-------3-----------|
G|-------|-----0-------0-----0-------0---2-------3-----0-------0-------------|
D|-------|---2-------2-----0-------0---0-----0-------------------------------|
A|---0-2-|-3-----3-------2-----2---------------------------------------------|
E|-3-----|-------------------------------------------3-----3-----------------|

         D/F#  G    C       D
e|---0~----------------------------------------------------------------------|
B|--------3~--------1~----0-3~-----------------------------------------------|
G|---0~---2~---0~---0~------2~--0--------------------------------------------|
D|-------------0~-----------0~-----------------------------------------------|
A|------------------3~-------------------------------------------------------|
E|---0~---2~---3~------------------------------------------------------------|



ORDER OF SONG:

Intro
Verse
Chorus
Intro
Verse
Chorus
Intro
Bridge
Verse x 2
Chorus
Verse (End on G)
Suggest correction
comments
print report bad tab
1 comment total.
+1 reply
tlind44 10 Jan 11, 2012 12:18 AM, edited on August 5 2015, 11:36 pm

Thank you!

guest
You may want to rate the tab now too:
select rating
Wanna post a correction for this tab? Suggest correction