Oops, an error
Loading. Please wait.

Spinning Tab

version 1
version 1

Whole song

Interactive

5,972 views 27 this week
no commentswrite comment
1 2 3 4 5
excellent!
x 4
add to favorites
launch autoscroll
font size
0
reset
how to read this tab
guitar tuner
Autoscroll
slow
fast
+/-
esc
set tempo
stop
Help us to improve Ultimate-Guitar.com Take our survey!
×
Author
Capo
1st fret
Mike G
Spinning
Jack's Mannequin
The Glass Passenger


CAPO 1st FRET:play notes relative to no capo
              play chords relative to capo

Intro:

e |-----------------------------------------------------------|
B |--9-----9-----9------7-6----9-----9-----------6-7-6--------|
G |----8-6---8-6---8-6------8----8-6---8-6---6-8--------------|
D |-----------------------------------------6-----------------|
A |-----------------------------------------------------------|
E |-----------------------------------------------------------|

e |-----------------------------------------------------------|
B |--9-----9-----9-----7-6----9-----9-------------------------|
G |----8-6---8-6---8-6-----8----8-6---8-6-----6-------6-------|
D |---------------------------------------6-8---8-6-8---8-----|
A |-----------------------------------------------------------|
E |-----------------------------------------------------------|

Verse:(palm Mute)
G                                 F       C
I'm keeping quiet 'till there is no more sirens
G                                  F             C
Lately it's been hard to keep the hinges on with all the noise
G                                F       C
I'll find my words when there is no one talking
G                           F        C
The room is spinning I have got no choice
    F                                 G(held)
Be patience I am getting to the point

Chorus:
G                         F              C
I can't remember when the earth turned slowly
G                          F             C
So I just waited with the lights turned out again
G                           F          C
I lost my place but I can't stop this story
G                         F        C
I'll find my way but until then I'm only spinning

e |-----------------------------------------------------------|
B |--9-----9-----9------7-6----9-----9-----------6-7-6--------|
G |----8-6---8-6---8-6------8----8-6---8-6---6-8--------------|
D |-----------------------------------------6-----------------|
A |-----------------------------------------------------------|
E |-----------------------------------------------------------|


SOlo:
                                Strum fast listen for timing
e |--9-8---11-9---9-8---11-9---9s13-13-13-13-13-13-13---------|
B |------9------9-----9------9--------------------------------|
G |-----------------------------------------------------------|
D |-----------------------------------------------------------|
A |-----------------------------------------------------------|
E |-----------------------------------------------------------|

e |---16-p-14-p-13-X around 8---end on 16~-----------------------|
B |--------------------------------------------------------------|
G |--------------------------------------------------------------|
D |--------------------------------------------------------------|
A |--------------------------------------------------------------|
E |--------------------------------------------------------------|


Chords:

      G   F   C
e |---3---1---0-----------------|
B |---3---1---1-----------------|
G |---0---2---0-----------------|
D |---0---3---2-----------------|
A |---2---3---3-----------------|
E |---3---1---x-----------------|
Suggest correction
comments
print report bad tab
guest
You may want to rate the tab now too:
select rating
Please do not post tabs as comments. Select "correction" instead!