Oops, an error
Loading. Please wait.

The Mixed Tape Tab

29,265 views 21 this week
3 commentsread comments
1 2 3 4 5
accurate
x 8
add to favorites
launch autoscroll
font size
0
reset
how to read this tab
guitar tuner
Tab Pro tools
  • play this tab
  • loop segment
  • change instrument
  • show fretboard
  • metronome
×
Best way to learn
"The Mixed Tape"
Autoscroll
slow
fast
+/-
esc
set tempo
stop
Contributor
----------------------------------------------------------------------------
                THE MIXED TAPE - Jack's Mannequin
----------------------------------------------------------------------------

Tabbed by: Nathan Alexander
Email: phree89@yahoo.com

Ok. Well its not a very complicated song, though it sounds great. The second time around
the chorus starts a little early so just play with it. I listed the chords in the chorus
in case you want to go figure out the chorus piano, which is also pretty easy. Just a
note if you do, the piano goes from the Dbmj back to Ebm instead of the Abmj on that
first part. I'm pretty sure thats the only difference. If not let me know. Enjoy.

Tuning:Normal (EADGBE)

| /  slide up
| \  slide down
| h  hammer-on
| p  pull-off
| ~  vibrato
| +  harmonic
| x  Mute note
|<(?) Bend to note

ORDER:
|Verse Part 1
|Verse Part 2
|Verse Part 1
|Verse part 2
|Chorus
|Verse Part 1
|Verse Part 2
|Verse Part 1
|Verse part 2/early chorus
|Chorus
|Bridge
|Chorus rest of song


Verse Part 1(intro)
E|--------------------------------------------|
B|--------------------------------------------|
G|--6--5---5--10------------------------------|
D|--x--x---6--8-------------------------------| 
A|--x--4---x--6-------------------------------|
E|--6------4----------------------------------|


Verse Part 2 Guitar 1
e|----------------------------------|
B|----------------------------------|
G|----------6-6-6-6--8-8-8-8--------|
D|-4-4-4-4--6-6-6-6--8-8-8-8--------|
A|-4-4-4-4--4-4-4-4--6-6-6-6--------|
E|-2-2-2-2--------------------------|

Verse Part 2 Guitar 2 (2X)
e|--------------------------------------|
B|--------------------------------------|
G|----10-10-8-8----------10-10-8-8------|
D|-8-8---------11-11--8-8---------11-11-|
A|--------------------------------------|
E|--------------------------------------|

Verse Part 1
E|--------------------------------------------|
B|--------------------------------------------|
G|--6--5---5--10------------------------------|
D|--x--x---6--8-------------------------------|
A|--x--4---x--6-------------------------------|
E|--6------4----------------------------------|


Verse Part 2 Guitar 1
e|----------------------------------|
B|----------------------------------|
G|----------6-6-6-6--8-8-8-8--------|
D|-4-4-4-4--6-6-6-6--8-8-8-8--------|
A|-4-4-4-4--4-4-4-4--6-6-6-6--------|
E|-2-2-2-2--------------------------|

Verse Part 2 Guitar 2 (2X)
e|------------------------------------------------------|
B|------------------------------------------------------|
G|----10-10-8-8----------10-10-8-8-----(last one)8<(10)-|
D|-8-8---------11-11--8-8---------11-11-----------------|
A|------------------------------------------------------|
E|------------------------------------------------------|

Chorus
  F#mj    Bm   Dbmj Ebmj   F#mj  Dbmj Abmj
e|-2-2----6-6--6-6--8-8----2-2----6-6--4---|
B|-2-2----6-6--6-6--8-8----2-2----6-6--4---|
G|-5-5----6-6--6-6--8-8----5-5----6-6--5---|
D|-4-4----8-8--6-6--6-6----4-4----8-8--6---|
A|-4-4----8-8--4-4--6-6----4-4----8-8--6---|
E|-2-2----6-6--------------2-2----6-6--4---|

Bridge (same as second part of choruse)
  F#mj Dbmj Abmj
e|-2----6---4---|
B|-2----6---4---|
G|-5----6---5---|
D|-4----8---6---|
A|-4----8---6---|
E|-2----6---4---|


 After that its pretty much goes with the chorus. Toy with it, get a feel for it.
Its my first tab I think I did ok. Any corrections email me: phree89@yahoo.com




============================================================================
comments
print report bad tab
3 comments total.
0 reply
TheLastLegacy wrote on November 9 2005, 07:13 pm

real good job just a little error on the verse when the distortion comes in it doesn't go start with the

F#
4
4
2

it starts with
F
3
3
1

-1 reply
ZoSo1990 wrote on February 24 2006, 05:52 pm

nice tab, theres a few mistakes though

in the intro/verse part 1

it should be
e|-----------------------------|
B|-9---9---8------x--8-8--11---|
G|-10--10--8------x--8-8--10---|
D|-x---x---x------x--6-6--8----|
A|-8---8---6------x--6-6--8----|
E|-----------------------------|

not
e|-----------------------------|
B|-9---9---8---------8-8--11---|
G|-10--10--8---------8-8--10---|
D|-x---x---x---------6-6--8----|
A|-8---8---6----6-6--6-6--8----|
E|-----------------------------|

and the part 2 of the verse is repeated 4 times before it plays part 1 again, except before the chorus, it only plays it 3 times

0 reply
ZoSo1990 wrote on February 25 2006, 02:31 pm

actually it plays verse part 2 four times before the chorus also, not just 3

I want to post or [tab]
guest
You may want to rate the tab now too:
select rating
Please do not post tabs as comments. Select "correction" instead!