Oops, an error
Loading. Please wait.

Im Alive Acoustic tab

version 1
version 1

Whole song

  • This is the version Jackson plays in his live show... Show more
79 views 3 this week
no commentswrite comment
1 2 3 4 5
3 more votes to show rating
add to favorites
×
Save as Personal and add changes to this tab that will be seen only by you. Learn more ›
×
You can save this tab as Personal to edit and correct it or add notes. All changes will be seen only by you. Learn more »
launch autoscroll
font size
0
reset
how to read this tab
guitar tuner
edit
Autoscroll
slow
fast
+/-
esc
set tempo
stop
About this tab version
This is the version Jackson plays in his live shows. https://www.youtube.com/watch?v=oo8m1rJ0ztw He uses an acoustic guitar tuned to open D tuning. If you want to pick up the rhythm I would recommend watching some videos on youtube. It has a rolling strumming pattern which I have tried my best to replicated on the tab but requires a lot of practice and listening to, in order to get it spot on. Was this info helpful? Yes No
[Intro]
D |---0--0-0-0-------------0--0-0-0---0--0-0-0----0--0-0-0---0---------0--0-0-0---------------------|
A |---0--0-0-0-------------0--0-0-0---0--0-0-0----0--0-0-0---0---------0--0-0-0---------------------|
F#|---0--0-0-0----3\1-0----1--1-1-1---1--1-1-1----0--0-0-0---0-----3---1--1-1-1---------------------|
D |---------------4\2-0----0--0-0-0---0--0-0-0------------------2/4--2-2--2-2-2-----------0---------|
A |---------------------2-----------2----------------------------------0--0-0-0-------0h2---0h2p0---|
D |-0----------0--------0-----------0------------0---------0-----------0--0-0-0-------------------0-|

D |---0--0-0-0-------------0--0-0-0---0--0-0-0----0--0-0-0---0---------0--0-0-0--------|
A |---0--0-0-0-------------0--0-0-0---0--0-0-0----0--0-0-0---0---------0--0-0-0--------|
F#|---0--0-0-0----3\1-0----1--1-1-1---1--1-1-1----0--0-0-0---0-----3---1--1-1-1--------|
D |---------------4\2-0----0--0-0-0---0--0-0-0------------------2/4--2-2--2-2-2--------|
A |---------------------2-----------2----------------------------------0--0-0-0--------|
D |-0----------0--------0-----------0------------0---------0-----------0--0-0-0--------|

[Verse]
It's been a long time since I watched these lights alone
D |------0-0---0-0-0--------------0-0--0-0-0---0-0--0-0-0----|
A |------0-0---0-0-0--------------0-0--0-0-0---0-0--0-0-0----|
F#|------0-0---0-0-0----3\1-0-----1-1--1-1-1---1-1--1-1-1----|
D |---------------------4\2-0-----0-0--0-0-0---0-0--0-0-0----|
A |-----------------------------2------------2---------------|
D |----0-------------0----------0------------0---------------|

   I look around my life tonight and you are gone
D |---0-0---0-0-0------0-0---0-0-0-----0-0--0-0-0-----0-0--0-0-0----------|
A |---0-0---0-0-0------0-0---0-0-0-----0-0--0-0-0-----0-0--0-0-0----------|
F#|---0-0---0-0-0------0-0---0-0-0-----1-1--1-1-1-----1-1--1-1-1----------|
D |------------------------------------0-0--0-0-0-----0-0--0-0-0----------|
A |---------------------------------2--------------2----------------------|
D |--0------------0-------------------------------------------------------|

   I might have done something to keep you if I'd known
D |------0-0---0-0-0--------------0-0--0-0-0---0-0--0-0-0----|
A |------0-0---0-0-0--------------0-0--0-0-0---0-0--0-0-0----|
F#|------0-0---0-0-0----3\1-0-----1-1--1-1-1---1-1--1-1-1----|
D |---------------------4\2-0-----0-0--0-0-0---0-0--0-0-0----|
A |-----------------------------2------------2---------------|
D |----0-------------0----------0------------0---------------|

        How unhappy you had become
D |---0-0--0-0-0---0-0---0-0-0---7-7---7-7-7-----7-7--7-7-7----------|
A |---0-0--0-0-0---0-0---0-0-0---7-7---7-7-7-----7-7--7-7-7----------|
F#|---0-0--0-0-0---0-0---0-0-0---7-7---7-7-7-----7-7--7-7-7----------|
D |------------------------------7-7---7-7-7-----7-7--7-7-7----------|
A |------------------------------7-7---7-7-7-----7-7--7-7-7----------|
D |--0-----------0-------------7--------------7----------------------|

While I was dreaming of you,   With my heart in your hands
D |------0-0---0-0-0--------------0-0--0-0-0---0-0--0-0-0----|
A |------0-0---0-0-0--------------0-0--0-0-0---0-0--0-0-0----|
F#|------0-0---0-0-0----3\1-0-----1-1--1-1-1---1-1--1-1-1----|
D |---------------------4\2-0-----0-0--0-0-0---0-0--0-0-0----|
A |-----------------------------2------------2---------------|
D |----0-------------0----------0------------0---------------|

And I was following through,     With my beautiful plans
D |---0-0--0-0-0---0-0---0-0-0---0-0---0-0-0-----7-7--7-7-7----------|
A |---0-0--0-0-0---0-0---0-0-0---0-0---0-0-0-----7-7--7-7-7----------|
F#|---0-0--0-0-0---0-0---0-0-0---0-0---0-0-0-----7-7--7-7-7----------|
D |------------------------------9-9---9-9-0-----7-7--7-7-7----------|
A |------------------------------0-0---0-0-0-----7-7--7-7-7----------|
D |--0-----------0-------------9-------9------7----------------------|

D |---0-0--0-0-0---0-0---0-0-0---0-0---0-0-0-----7-7--7-7-7----------|
A |---0-0--0-0-0---0-0---0-0-0---0-0---0-0-0-----7-7--7-7-7----------|
F#|---0-0--0-0-0---0-0---0-0-0---0-0---0-0-0-----7-7--7-7-7----------|
D |------------------------------9-9---9-9-0-----7-7--7-7-7----------|
A |------------------------------0-0---0-0-0-----7-7--7-7-7----------|
D |--0-----------0-------------9-------9------7----------------------|

[Chorus]
       Yeah          now I'm rolling down this canyon drive
D |---0-0--0-0-0---0-0---0-0-0---5-5---5-5-5-----5-5--5-5-5----------|
A |---0-0--0-0-0---0-0---0-0-0---5-5---5-5-5-----5-5--5-5-5----------|
F#|---0-0--0-0-0---0-0---0-0-0---5-5---5-5-5-----5-5--5-5-5----------|
D |------------------------------5-5---5-5-5-----5-5--5-5-5----------|
A |------------------------------5-5---5-5-5-----5-5--5-5-5----------|
D |--0-----------0-------------5--------------5----------------------|

                                 With your laughter in my head
D |---0-0--0-0-0---0-0---0-0-0---0-0---0-0-0-----7-7--7-7-7----------|
A |---0-0--0-0-0---0-0---0-0-0---0-0---0-0-0-----7-7--7-7-7----------|
F#|---0-0--0-0-0---0-0---0-0-0---0-0---0-0-0-----7-7--7-7-7----------|
D |------------------------------9-9---9-9-0-----7-7--7-7-7----------|
A |------------------------------0-0---0-0-0-----7-7--7-7-7----------|
D |--0-----------0-------------9-------9------7----------------------|

                I'm gonna have to block it out somehow to survive
D |---0-0--0-0-0---0-0---0-0-0---5-5---5-5-5-----5-5--5-5-5----------|
A |---0-0--0-0-0---0-0---0-0-0---5-5---5-5-5-----5-5--5-5-5----------|
F#|---0-0--0-0-0---0-0---0-0-0---5-5---5-5-5-----5-5--5-5-5----------|
D |------------------------------5-5---5-5-5-----5-5--5-5-5----------|
A |------------------------------5-5---5-5-5-----5-5--5-5-5----------|
D |--0-----------0-------------5--------------5----------------------|

                    'Cause those dreams are dead
D |---0-0--0-0-0---0-0---0-0-0---7-7---7-7-7--------------7----------|
A |---0-0--0-0-0---0-0---0-0-0---7-7---7-7-7--------------7----------|
F#|---0-0--0-0-0---0-0---0-0-0---7-7---7-7-7--------------7----------|
D |------------------------------7-7---7-7-7--------------7----------|
A |------------------------------7-7---7-7-7--------------7----------|
D |--0-----------0-------------7--------------------------7----------|

And I'm alive

D |---7--7---7--7---5-5-5--5-5-7----------|
A |---7--7---7--7---5-5-5--5-5-7----------|
F#|---8--7---7--8---5-5-5--5-5-7----------|
D |---7--7---7--7---5-5-5--5-5-7----------|
A |---9--7---7--9---5-5-5--5-5-7----------|
D |---7--7---7--7---5-5-5--5-5-7----------|

D |---7--7---7--7---5-5-5--5-5-7----------|
A |---7--7---7--7---5-5-5--5-5-7----------|
F#|---8--7---7--8---5-5-5--5-5-7----------|
D |---7--7---7--7---5-5-5--5-5-7----------|
A |---9--7---7--9---5-5-5--5-5-7----------|
D |---7--7---7--7---5-5-5--5-5-7----------|

[Verse]
I want to go where I will never hear your name
D |------0-0---0-0-0--------------0-0--0-0-0---0-0--0-0-0----|
A |------0-0---0-0-0--------------0-0--0-0-0---0-0--0-0-0----|
F#|------0-0---0-0-0----3\1-0-----1-1--1-1-1---1-1--1-1-1----|
D |---------------------4\2-0-----0-0--0-0-0---0-0--0-0-0----|
A |-----------------------------2------------2---------------|
D |----0-------------0----------0------------0---------------|

     I want to lose my sorrow and be free again
D |---0-0---0-0-0------0-0---0-0-0-----0-0--0-0-0-----0-0--0-0-0----------|
A |---0-0---0-0-0------0-0---0-0-0-----0-0--0-0-0-----0-0--0-0-0----------|
F#|---0-0---0-0-0------0-0---0-0-0-----1-1--1-1-1-----1-1--1-1-1----------|
D |------------------------------------0-0--0-0-0-----0-0--0-0-0----------|
A |---------------------------------2--------------2----------------------|
D |--0------------0-------------------------------------------------------|

          And I know I've been insane
D |---0-0--0-0-0---0-0---0-0-0---5-5---5-5-5-----5-5--5-5-5----------|
A |---0-0--0-0-0---0-0---0-0-0---5-5---5-5-5-----5-5--5-5-5----------|
F#|---0-0--0-0-0---0-0---0-0-0---5-5---5-5-5-----5-5--5-5-5----------|
D |------------------------------5-5---5-5-5-----5-5--5-5-5----------|
A |------------------------------5-5---5-5-5-----5-5--5-5-5----------|
D |--0-----------0-------------5--------------5----------------------|

When I think of places I could have been
D |---0-0--0-0-0---0-0---0-0-0---7-7---7-7-7-----7-7--7-7-7----------|
A |---0-0--0-0-0---0-0---0-0-0---7-7---7-7-7-----7-7--7-7-7----------|
F#|---0-0--0-0-0---0-0---0-0-0---7-7---7-7-7-----7-7--7-7-7----------|
D |------------------------------7-7---7-7-7-----7-7--7-7-7----------|
A |------------------------------7-7---7-7-7-----7-7--7-7-7----------|
D |--0-----------0-------------7--------------7----------------------|

     But I was dreaming of you,  With my heart in your hands
D |------0-0---0-0-0--------------0-0--0-0-0---0-0--0-0-0----|
A |------0-0---0-0-0--------------0-0--0-0-0---0-0--0-0-0----|
F#|------0-0---0-0-0----3\1-0-----1-1--1-1-1---1-1--1-1-1----|
D |---------------------4\2-0-----0-0--0-0-0---0-0--0-0-0----|
A |-----------------------------2------------2---------------|
D |----0-------------0----------0------------0---------------|

And I was following through,     With my beautiful plans
D |---0-0--0-0-0---0-0---0-0-0---0-0---0-0-0-----7-7--7-7-7----------|
A |---0-0--0-0-0---0-0---0-0-0---0-0---0-0-0-----7-7--7-7-7----------|
F#|---0-0--0-0-0---0-0---0-0-0---0-0---0-0-0-----7-7--7-7-7----------|
D |------------------------------9-9---9-9-0-----7-7--7-7-7----------|
A |------------------------------0-0---0-0-0-----7-7--7-7-7----------|
D |--0-----------0-------------9-------9------7----------------------|

[Solo]
D |----0-0--0---0-------------0-0--0-0-0---0-0--0-0-0----|
A |----0-0--0---0-------------0-0--0-0-0---0-0--0-0-0----|
F#|----0-1-/3---3---3\1-0-----1-1--1-1-1---1-1--1-1-1----|
D |----0-2-/4---4---4\2-0-----0-0--0-0-0---0-0--0-0-0----|
A |----0-0------0---------------2------------2-----------|
D |----0-0------0----------0------------0----------------|

D |----0-0--0---0-------------0-0--0-0-0---0-0--0-0-0----|
A |----0-0--0---0-------------0-0--0-0-0---0-0--0-0-0----|
F#|----0-1-/3---3---3\1-0-----1-1--1-1-1---1-1--1-1-1----|
D |----0-2-/4---4---4\2-0-----0-0--0-0-0---0-0--0-0-0----|
A |----0-0------0---------------2------------2-----------|
D |----0-0------0----------0------------0----------------|

D |----0-0--0---0-------------0-0--0-0-0---0-0--0-0-0----|
A |----0-0--0---0-------------0-0--0-0-0---0-0--0-0-0----|
F#|----0-1-/3---3---3\1-0-----1-1--1-1-1---1-1--1-1-1----|
D |----0-2-/4---4---4\2-0-----0-0--0-0-0---0-0--0-0-0----|
A |----0-0------0---------------2------------2-----------|
D |----0-0------0----------0------------0----------------|

D |---0-0--0-0-0---0-0---0-0-0---0-0---0-0-0-----7-7--7-7-7----------|
A |---0-0--0-0-0---0-0---0-0-0---0-0---0-0-0-----7-7--7-7-7----------|
F#|---0-0--0-0-0---0-0---0-0-0---0-0---0-0-0-----7-7--7-7-7----------|
D |------------------------------9-9---9-9-0-----7-7--7-7-7----------|
A |------------------------------0-0---0-0-0-----7-7--7-7-7----------|
D |--0-----------0-------------9-------9------7----------------------|

Standing here by the highway side, Watching these trucks blow by
D |------------------0------------------------------0-------------------------|
A |------------------0------------------------------0-------------------------|
F#|------------------1------------------------------0-------------------------|
D |------------------0------------------------------0-------------------------|
A |------------------2------------------------------0-------------------------|
D |------------------0------------------------------0-------------------------|

Inches from my face,           Yeah thinking 'bout the time I've wasted
D |------------0---------------------7-----------------------------------0----|
A |------------0---------------------7-----------------------------------0----|
F#|------------0---------------------7-----------------------------------0----|
D |------------9---------------------7-----------------------------------0----|
A |------------0---------------------7-----------------------------------0----|
D |------------9---------------------7-----------------------------------0----|

And the pleasure we once tasted, Looking up and down this road (following through)
D |----------------------0---------------------------------0-------------------------|
A |----------------------0---------------------------------0-------------------------|
F#|----------------------1---------------------------------0-------------------------|
D |----------------------0---------------------------------0-------------------------|
A |----------------------2---------------------------------0-------------------------|
D |----------------------0---------------------------------0-------------------------|

I've been here before (following through)
D |------0------7--------------0----|
A |------0------7--------------0----|
F#|------0------7--------------0----|
D |------9------7--------------0----|
A |------0------7--------------0----|
D |------9------7--------------0----|

I can't be here no more (following through)
D |------0------7--------------0----|
A |------0------7--------------0----|
F#|------0------7--------------0----|
D |------9------7--------------0----|
A |------0------7--------------0----|
D |------9------7--------------0----|

D |------0------7--------------0----|
A |------0------7--------------0----|
F#|------0------7--------------0----|
D |------9------7--------------0----|
A |------0------7--------------0----|
D |------9------7--------------0----|

[Chorus]
     Yeah                     now I'm rolling down California five
D |---0-0--0-0-0---0-0---0-0-0---5-5---5-5-5-----5-5--5-5-5----------|
A |---0-0--0-0-0---0-0---0-0-0---5-5---5-5-5-----5-5--5-5-5----------|
F#|---0-0--0-0-0---0-0---0-0-0---5-5---5-5-5-----5-5--5-5-5----------|
D |------------------------------5-5---5-5-5-----5-5--5-5-5----------|
A |------------------------------5-5---5-5-5-----5-5--5-5-5----------|
D |--0-----------0-------------5--------------5----------------------|

                                 With your laughter in my head
D |---0-0--0-0-0---0-0---0-0-0---0-0---0-0-0-----7-7--7-7-7----------|
A |---0-0--0-0-0---0-0---0-0-0---0-0---0-0-0-----7-7--7-7-7----------|
F#|---0-0--0-0-0---0-0---0-0-0---0-0---0-0-0-----7-7--7-7-7----------|
D |------------------------------9-9---9-9-0-----7-7--7-7-7----------|
A |------------------------------0-0---0-0-0-----7-7--7-7-7----------|
D |--0-----------0-------------9-------9------7----------------------|

             I'm gonna have to block it out somehow to survive
D |---0-0--0-0-0---0-0---0-0-0---5-5---5-5-5-----5-5--5-5-5----------|
A |---0-0--0-0-0---0-0---0-0-0---5-5---5-5-5-----5-5--5-5-5----------|
F#|---0-0--0-0-0---0-0---0-0-0---5-5---5-5-5-----5-5--5-5-5----------|
D |------------------------------5-5---5-5-5-----5-5--5-5-5----------|
A |------------------------------5-5---5-5-5-----5-5--5-5-5----------|
D |--0-----------0-------------5--------------5----------------------|

                    'Cause those dreams are dead
D |---0-0--0-0-0---0-0---0-0-0---7-7---7-7-7--------------7----------|
A |---0-0--0-0-0---0-0---0-0-0---7-7---7-7-7--------------7----------|
F#|---0-0--0-0-0---0-0---0-0-0---7-7---7-7-7--------------7----------|
D |------------------------------7-7---7-7-7--------------7----------|
A |------------------------------7-7---7-7-7--------------7----------|
D |--0-----------0-------------7--------------------------7----------|

I'm alive
D |---7--7---7--7---5-5-5--5-5-7----------|
A |---7--7---7--7---5-5-5--5-5-7----------|
F#|---8--7---7--8---5-5-5--5-5-7----------|
D |---7--7---7--7---5-5-5--5-5-7----------|
A |---9--7---7--9---5-5-5--5-5-7----------|
D |---7--7---7--7---5-5-5--5-5-7----------|

D |---7--7---7--7---5-5-5--5-5-7----------|
A |---7--7---7--7---5-5-5--5-5-7----------|
F#|---8--7---7--8---5-5-5--5-5-7----------|
D |---7--7---7--7---5-5-5--5-5-7----------|
A |---9--7---7--9---5-5-5--5-5-7----------|
D |---7--7---7--7---5-5-5--5-5-7----------|

Yeah baby I'm alive
D |---7--7---7--7---5-5-5--5-5-7----------|
A |---7--7---7--7---5-5-5--5-5-7----------|
F#|---8--7---7--8---5-5-5--5-5-7----------|
D |---7--7---7--7---5-5-5--5-5-7----------|
A |---9--7---7--9---5-5-5--5-5-7----------|
D |---7--7---7--7---5-5-5--5-5-7----------|

Yeah, I'm alive
D |---7--7---7--7---5-5-5--5-5-7----------|
A |---7--7---7--7---5-5-5--5-5-7----------|
F#|---8--7---7--8---5-5-5--5-5-7----------|
D |---7--7---7--7---5-5-5--5-5-7----------|
A |---9--7---7--9---5-5-5--5-5-7----------|
D |---7--7---7--7---5-5-5--5-5-7----------|

[Outro]
Hey look at the way I believed in you, And loved you all these years
D |---0-0---0-0-0------0-0---0-0-0-----0-0--0-0-0-----0-0--0-0-0----------|
A |---0-0---0-0-0------0-0---0-0-0-----0-0--0-0-0-----0-0--0-0-0----------|
F#|---0-0---0-0-0------0-0---0-0-0-----1-1--1-1-1-----1-1--1-1-1----------|
D |------------------------------------0-0--0-0-0-----0-0--0-0-0----------|
A |---------------------------------2--------------2----------------------|
D |--0------------0-------------------------------------------------------|

Now you can fill a swimming pool with all my salty tears
D |---0-0---0-0-0------0-0---0-0-0-----0-0--0-0-0-----0-0--0-0-0----------|
A |---0-0---0-0-0------0-0---0-0-0-----0-0--0-0-0-----0-0--0-0-0----------|
F#|---0-0---0-0-0------0-0---0-0-0-----1-1--1-1-1-----1-1--1-1-1----------|
D |------------------------------------0-0--0-0-0-----0-0--0-0-0----------|
A |---------------------------------2--------------2----------------------|
D |--0------------0-------------------------------------------------------|

If you'd have told me what was in your heart, But baby you lied
D |---0-0---0-0-0------0-0---0-0-0-----0-0--0-0-0-----0-0--0-0-0----------|
A |---0-0---0-0-0------0-0---0-0-0-----0-0--0-0-0-----0-0--0-0-0----------|
F#|---0-0---0-0-0------0-0---0-0-0-----1-1--1-1-1-----1-1--1-1-1----------|
D |------------------------------------0-0--0-0-0-----0-0--0-0-0----------|
A |---------------------------------2--------------2----------------------|
D |--0------------0-------------------------------------------------------|

And I thought that it would kill me
D |---0-0--0-0-0---0-0---0-0-0---7-7---7-7-7--------------7----------|
A |---0-0--0-0-0---0-0---0-0-0---7-7---7-7-7--------------7----------|
F#|---0-0--0-0-0---0-0---0-0-0---7-7---7-7-7--------------7----------|
D |------------------------------7-7---7-7-7--------------7----------|
A |------------------------------7-7---7-7-7--------------7----------|
D |--0-----------0-------------7--------------------------7----------|

But I'm alive
D |----0-0--0---0-------------0-0--0-0-0---0-0--0-0-0----|
A |----0-0--0---0-------------0-0--0-0-0---0-0--0-0-0----|
F#|----0-1-/3---3---3\1-0-----1-1--1-1-1---1-1--1-1-1----|
D |----0-2-/4---4---4\2-0-----0-0--0-0-0---0-0--0-0-0----|
A |----0-0------0---------------2------------2-----------|
D |----0-0------0----------0------------0----------------|

D |---7--7---7--7---5-5-5--5-5-7----------|
A |---7--7---7--7---5-5-5--5-5-7----------|
F#|---8--7---7--8---5-5-5--5-5-7----------|
D |---7--7---7--7---5-5-5--5-5-7----------|
A |---9--7---7--9---5-5-5--5-5-7----------|
D |---7--7---7--7---5-5-5--5-5-7----------|

Yeah, I'm alive
D |----0-0--0---0-------------0-0--0-0-0---0-0--0-0-0----|
A |----0-0--0---0-------------0-0--0-0-0---0-0--0-0-0----|
F#|----0-1-/3---3---3\1-0-----1-1--1-1-1---1-1--1-1-1----|
D |----0-2-/4---4---4\2-0-----0-0--0-0-0---0-0--0-0-0----|
A |----0-0------0---------------2------------2-----------|
D |----0-0------0----------0------------0----------------|

D |---7--7---7--7---5-5-5--5-5-7----------|
A |---7--7---7--7---5-5-5--5-5-7----------|
F#|---8--7---7--8---5-5-5--5-5-7----------|
D |---7--7---7--7---5-5-5--5-5-7----------|
A |---9--7---7--9---5-5-5--5-5-7----------|
D |---7--7---7--7---5-5-5--5-5-7----------|

Yeah, I'm alive
D |----0-0--0---0-------------0-0--0-0-0---0-0--0-0-0----|
A |----0-0--0---0-------------0-0--0-0-0---0-0--0-0-0----|
F#|----0-1-/3---3---3\1-0-----1-1--1-1-1---1-1--1-1-1----|
D |----0-2-/4---4---4\2-0-----0-0--0-0-0---0-0--0-0-0----|
A |----0-0------0---------------2------------2-----------|
D |----0-0------0----------0------------0----------------|

D |---7--7---7--7---|
A |---7--7---7--7---|
F#|---8--7---7--8---|
D |---7--7---7--7---|
A |---9--7---7--9---|
D |---7--7---7--7---|

D |--------------0-----------------0--------------------------------------------|
A |-----------0-------------------0---------------------------------------------|
F#|---------1--------------------0----------------------------------------------|
D |-------0---------------------0-----------------------------------------------|
A |-----2----------------------0------------------------------------------------|
D |---0-----------------------0-------------------------------------------------|


************************************

| h   Hammer-on
| p   Pull-off
| /   Slide up
| \   Slide down

************************************

            
            
Suggest correction
Creating personal tab
Creating personal tab
You can edit any tab online and save it as your Personal.

You can edit, replace or remove any tab part or add personal notes – all changes will be seen only by you.

Personal tabs can be accessed anytime from any device, even offline.
Learn more »
Give kudos to tab author, rate the tab!
1 2 3 4 5
comments
print report bad tab
guest
You may want to rate the tab now too:
select rating
Wanna post a correction for this tab? Suggest correction