Oops, an error
Loading. Please wait.

Somebodys Baby bass

version 1
version 1

Whole song

Interactive

2,103 views 6 this week
no commentswrite comment
1 2 3 4 5
x 3
add to favorites
×
Save as Personal and add changes to this tab that will be seen only by you. Learn more ›
×
You can save this tab as Personal to edit and correct it or add notes. All changes will be seen only by you. Learn more »
launch autoscroll
font size
0
reset
guitar tuner
edit
Autoscroll
slow
fast
+/-
esc
set tempo
stop
Author
-----------------------------------------------------------------------------
                      SOMEBODY'S BABY - Jackson Browne
-----------------------------------------------------------------------------

Tabbed by: Matt Broback
E-mail: 37hambone@gmail.com

Tuning: E A D G


INTRO
|----------------|----------------|----------------|---------------|
|----------------|----------------|----------------|---------------|
|5-5-5-5-5-5-5-0-|2-2-2-2-2-2-2-0-|----------------|-----------55--|
|----------------|----------------|3-3-3-3-3-3-3-4-|5-5-5-5-5h7--7-|

|----------------|----------------|----------------|----------------|
|----------------|----------------|----------------|----------------|
|5-5-5-5-5-5-0-1-|2-2-2-2-2-2-2-0-|----------------|----------------|
|----------------|----------------|3-3-3-3-3-3-3-4-|5-5-5-5-5-5-5-4-|


VERSE 1
|----------------|----------------|----------------|----------------|
|----------------|----------------|----------------|----.-----------|
|----------------|----------------|----------------|4-4-7-5---5-----|
|3-3-3---3-3---4-|5-5-5---5-5-5-6-|7-7-7---7-7---7-|------------7-5-|

|----------------|----------------|----------------|----------------|
|----------------|----------------|----------------|----------------|
|----------------|----------------|----------------|----------------|
|3-3-3---3-3---4-|5-5-5---5-5---2-|3-3-3---3-3---4-|5-5-5---5-5-0-2-|

|----------------|----------------|----------------|----------------|
|----------------|----------------|----------------|----.-----------|
|----------------|----------------|----------------|4-4-7-5---5-----|
|3-3-3---3-3-3-4-|5-5-5---5-5-5-6-|7-7-7---7-7---7-|------------7-5-|

|----------------|----------------|----------------|----------------|
|----------------|----------------|----------------|----------------|
|----------------|----------------|----------------|----------2-4---|
|3-3-3---3-3---4-|5-5-5---5-5-0-2-|3-3-3---3-3---4-|5-5-5-5-5-----5-|

|----------------|----------------|
|----------------|----------------|
|----------------|-------------5--|
|3-3-3---3-3---4-|5-5-5-5-5-5h7-7-|


CHORUS
|----------------|----------------|----------------|----------------|
|----------------|----------------|----------------|----------------|
|5-5-5-5-5-5-0-1-|2-2-2-2-2-2-2-0-|----------------|-------------5--|
|----------------|----------------|3-3-3-3-3-3-3-4-|5-5-5-5-5-5h7-7-|

|----------------|----------------|----------------|----------------|
|----------------|----------------|----------------|----------------|
|5-5-5-5-5-5-0-1-|2-2-2-2-2-2-2-0-|----------------|----------------|
|----------------|----------------|3-3-3-3-3-3-3-4-|5-5-5-5-5-5-5-2-|


VERSE 2
|----------------|----------------|----------------|----------------|
|----------------|----------------|----------------|----.-----------|
|----------------|----------------|--------------4-|4-4-7-5---5-----|
|3-3-3-3-3-3-3-4-|5-5-5-5-5-5-5-6-|7-7-7-7-7-7-7---|------------0-2-|

|----------------|----------------|----------p---p-|----------------|
|----------------|----------------|----------5---6-|----------------|
|----------------|----------------|----------------|----------------|
|3-3-3---3-3-3-4-|5-5-5-5-5-5-5-2-|3-3-3-3-3---4---|5-5-5-5-5-5-5-2-|

|----------------|----------------|----------------|----------------|
|----------------|----------------|----------------|----.-----------|
|----------------|----------------|----------------|4-4-7-5---5-----|
|3-3-3-3-3-3-3-4-|5-5-5---5-5-5-6-|7-7-7-7-7-7-7-7-|------------7-5-|

|----------------|----------------|----------------|----------------|
|----------------|----------------|----------------|----------------|
|----------------|----------------|----------------|------------4---|
|3-3-3---3-3---4-|5-5-5---5-5---2-|3-3-3---3-3---4-|5-5-5---5-7---5-|

|----------------|----------------|
|----------------|----------------|
|----------------|---------55-----|
|3-3-3---3-3-3-4-|5-5-5-5h7---7-5-|


CHORUS 2
|----------------|----------------|----------------|----------------|
|----------------|----------------|----------------|----------------|
|5-5-5-5-5-5-0-1-|2-2-2-2-2-2-2-0-|----------------|-----------55---|
|----------------|----------------|3-3-3-3-3-3-3-4-|5-5-5-5-5h7---7-|

|----------------|----------------|----------------|----------------|
|-----------7----|----------------|----------------|----------------|
|5-5-5-5-7/9-9-7-|----------------|----------------|----------------|
|----------------|7-7-7-7-7-7-7-5-|3-3-3-3-3-3-3-4-|5-5-5-5-5-5-5-4-|


BREAK
|----------------|----------------|----------------|----------------|
|----------------|----------------|----------------|----------------|
|----------------|----------------|----------------|------4-5-4-----|
|3-3-3---3-3-3-4-|5-5-5---5-5-5-6-|7-7-7-7-7-7-5-7-|7-7-7-------7-5-|

|----------------|----------------|----------------|----------------|
|----------------|----------------|----------------|----------------|
|----------------|--------------5-|----------------|----------------|
|3-3-3-3-3-3-3-4-|5-5-5-5-5-5-5---|7-7-7-7-7-7-5-7-|7-7-7-7-7-7-7-5-|

|----------------|----------------|
|----------------|----------------|
|----------------|--------------4-|
|3-3-3-3-3-3-3-4-|5-5-5-5-5-7-5---|


SOLO
|----------------|----------------|----------------|----------------|
|----------------|----------------|----------------|----------------|
|5-5-5-5-5-5-5-4-|2-2-2-2-2-2-2-0-|----------------|-----------55---|
|----------------|----------------|3-3-3-3-3-3-3-4-|5-5-5-5-5h7---7-|

|-----------2-3-4-|-----------2-3-4-|----------------|----------------|
|0-0-0-0-/4-------|--------/4-------|----------------|----------------|
|-----------------|2-2-2-2----------|----------------|----------------|
|-----------------|-----------------|3-3-3-3-3-3-3-4-|5-5-5-5-5-5-5\4-|

|----------------|----------------|----------s---s-|----------------|
|----------------|----------------|----------5---6-|----------------|
|----------------|----------------|----------------|----------------|
|3-3-3---3-3-3-4-|5-5-5---5-5-5-2-|3-3-3---3---4---|5-5-5---5-5-5-2-|

|----------------|----------------|----------------|----------------|
|----------------|----------------|----------------|----------------|
|----------------|--------------2-|----------------|--------------4-|
|3-3-3---3-3-4-5-|--5-5---5-5-5---|3-3-3---3-3-4-5-|--5-5---5-5-5---|


OUTRO
|----------------|--------------2-|----------------|----------------|
|----------------|----------------|--------------5-|----------------|
|5-5-5-5-5-5-0-1-|2-2-2-2-2-2-0---|----------------|-----------55---|
|----------------|----------------|3-3-3-3-3-3-3---|5-5-5-5-5h7---7-|

|----------------|----------------|----------------|----------------|
|------------789-|----------9---7-|------------5---|----------------|
|5-5-5-5-7/9-----|----------------|----------------|------------5---|
|----------------|7-7-7-7-7---5---|3-3-3-3-3-3---4-|5-5-5-5-5-5---7-|

|----------------|--4-------------|----------------|----------------|
|----------------|----------------|----------------|----------------|
|5-5-5-5-5-5-0-1-|2---2---2-2-2-0-|----------------|-------------5--|
|----------------|----------------|3-3-3---3-3-3-4-|5-5-5-5-5-5h7-7-|

|-----------2-3-4-|-----------2-3-4-|----------------|----------------|
|0-0-0-0-/4-------|--------/4-------|----------5---6-|----------------|
|-----------------|2-2-2-2----------|----------------|-------------5--|
|-----------------|-----------------|3-3-3-3-3---4---|5-5-5-5-5-5h7-7-|

|--------------s-|----------s---s-|--------------s-|----------------|
|--------------7-|----------9---7-|--------------5-|----------------|
|5-5-5-5-5-5-0---|----------------|----------------|-------------5--|
|----------------|7-7-7-7-7---5---|3-3-3-3-3-3-3---|5-5-5-5-5-5h7-7-|

                                s
|----------------|--------------2-|----------s-----|--s---s---s-----|
|----------------|----------------|----------5-----|--7---7---7-----|
|5-5-5-5-5-5-0-1-|2-2-2-2-2-2-0---|----------------|----------------|
|----------------|----------------|3-3-3-3-3---3-4-|5---5---5---5-7-|

                    s
|--------7-------|--4-------------|----------------|----------------|
|----------------|----------------|------------5---|----------------|
|5-5-5-5---0-1-2-|2---2-2-2-2-2-0-|----------------|------------2-5-|
|----------------|----------------|3-3-3-3-3-3---4-|5-5-5-5-5-5-----|

                                s
|----------------|--------------2-|----------s-----|---------------|
|----------------|----------------|----------5-----|---------------|
|5-5-5-5-5-0-1-2-|2-2-2-2-2-2-0---|----------------|---------------|
|----------------|----------------|3-3-3-3-3---4-5-|5-5-5-5-fade---|

            
            
Suggest correction
Creating personal tab
Creating personal tab
You can edit any tab online and save it as your Personal.

You can edit, replace or remove any tab part or add personal notes – all changes will be seen only by you.

Personal tabs can be accessed anytime from any device, even offline.
Learn more »
Give kudos to tab author, rate the tab!
1 2 3 4 5
comments
print report bad tab
guest
You may want to rate the tab now too:
select rating
Wanna post a correction for this tab? Suggest correction