Oops, an error
Loading. Please wait.

These Days tab

version 2
version 2

Whole song

1,954 views 18 this week
no commentswrite comment
1 2 3 4 5
x 4
add to favorites
×
Save as Personal and add changes to this tab that will be seen only by you. Learn more ›
×
You can save this tab as Personal to edit and correct it or add notes. All changes will be seen only by you. Learn more »
launch autoscroll
font size
0
reset
how to read this tab
guitar tuner
edit
Autoscroll
slow
fast
+/-
esc
set tempo
stop
These Days by Jackson Browne


I think I learned this from a YouTube tutorial, but there wasn't a tab available. (I'm not claiming it's 
perfect, but I think it sounds great!) 
lexysheffield@gmail.com

It sounds like he plays it with a capo on 1. 

When it says F*, play the low E string with your thumb on the first fret and leave the high e string open 


            C               Am             F*
        |-0-------------|-0--------------|-0------------|---------------|
        |----------1----|----------1-----|--------1-----|-1-------1-----|
        |------0-------0|------2-------0-|---2--------2-|-----2-------2-|
        |----2-------0--|----2-------2---|----------3---|---3-------3---|
        |-3------2------|-0--------------|--------------|---------------|
        |---------------|--------3-------|-1----0-------|-1-----1-------|
    Well, I’ve been out   walkin’

          C                Am              F*
        |-0-------------|-0--------------|-0------------|----------------|
        |----------1----|----------1-----|--------1-----|-------1--------|
        |------0-------0|------2-------0-|---2--------2-|-2p0------0---0-|
        |----2-------0--|----2-------2---|----------3---|-----3------3---|
        |-3------2------|-0--------------|--------------|----------------|
        |---------------|--------3-------|-1----0-------|----------------|
    I don’t do     that much  talkin’    these   days

            C                              G
        |-0-------------|-3-------------|---------------|-----------------|
        |---------1-----|---------1-----|-0-----------0-|-------0-------0-|
        |-----0-------0-|-----0-------0-|-----0-----0---|-----0-------0---|
        |---2-------2---|---2-------2---|-------0h2-----|-2h3-------3-----|
        |-3-----3-------|-3-----3-------|---2-----------|-----------------|
        |---------------|---------------|-3-------------|---------3-------|
    These days.. 

            F*
        |----------------|---------------|----------------|---------------|
        |-1-------1------|-1--------1----|-1-------1------|-1--------1----|
        |----2--------2--|-----2-------2-|----2--------2--|-----2-------2-|
        |-----------3----|---3-------3---|-----------3----|---3-------3---|
        |----------------|---------------|----------------|---------------|
        |-1-----1--------|-1-----1-------|-1-----1--------|-1-----1-------|
     These days I seem to     think a lot     about the things that I forgot   

            C                              G
        |-0-------------|-3-------------|---------------|-----------------|
        |---------1-----|---------1-----|-0-----------0-|-------0-------0-|
        |-----0-------0-|-----0-------0-|-----0-----0---|-----0-------0---|
        |---2-------2---|---2-------2---|-------0h2-----|-2h3-------3-----|
        |-3-----3-------|-3-----3-------|---2-----------|-----------------|
        |---------------|---------------|-3-------------|---------3-------|
       To do                                                         and

            F*
        |----------------|---------------|----------------|---------------|
        |-1-------1------|-1--------1----|-1-------1------|-1--------1----|
        |----2--------2--|-----2-------2-|----2--------2--|-----2-------2-|
        |-----------3----|---3-------3---|-----------3----|---3-------3---|
        |----------------|---------------|----------------|---------------|
        |-1-----1--------|-1-----1-------|-1-----1--------|-1-----1-------|
          All the times I  had the chance               to
 
            C              Am               F*
        |-0-------------|-0--------------|-0------------|---------------|
        |----------1----|----------1-----|--------1-----|-1-------1-----|
        |------0-------0|------2-------0-|---2--------2-|-----2-------2-|
        |----2-------0--|----2-------2---|----------3---|---3-------3---|
        |-3------2------|-0--------------|--------------|---------------|
        |---------------|--------3-------|-1----0-------|-1-----1-------|


Then it starts again.
         










Well I've been out walking
I don't do that much talking these days
These days--
These days I seem to think a lot
About the things that I forgot to do
And all the times I had the chance to

And I had a lover
It's so hard to risk another these days
These days--
Now if I seem to be afraid
To live the life I have made in song
Well it's just that I've been losing so long

I'll keep on moving
Things are bound to be improving these days
One of these days--
These days I sit on corner stones
And count the time in quarter tones to ten
Don't confront me with my failures
I had not forgotten them
Suggest correction
Creating personal tab
Creating personal tab
You can edit any tab online and save it as your Personal.

You can edit, replace or remove any tab part or add personal notes – all changes will be seen only by you.

Personal tabs can be accessed anytime from any device, even offline.
Learn more »
comments
print report bad tab
guest
You may want to rate the tab now too:
select rating
Wanna post a correction for this tab? Suggest correction