Oops, an error
Loading. Please wait.

Blues Run The Game Tab

version 2
version 2

Whole song

Interactive

127,820 views 462 this week
3 commentsread comments
1 2 3 4 5
x 69
add to favorites
launch autoscroll
font size
0
reset
how to read this tab
guitar tuner
Autoscroll
slow
fast
+/-
esc
set tempo
stop
Author
Difficulty
Capo
intermediate
6th fret
I've just tabbed the intro; the verses and the short little interludes between 
them are just variations on the intro - best just to improvise those as you go along! 


Blues Run The Game: Jackson C. Frank

Capo 6

[Intro]

e|------------------------3-----------------------------------|
B|----0---------0h1------------------0h3--0----0h1-------1----|
G|----------0----------0-----------------------------0--------|
D|----0-------0---h2-2-------2-------0------0---h2-2------0---|
A|------------------------------------------------------------|
E|-3------3------3-------3--------3------3-----3-------3------|

e|-----------------------------------------3------------------|
B|------1-------------1----------------0h1-----0---------0----|
G|-2-------0--------------0-------------------------0---------|
D|----0-------0-----2--------2-------0--h2---2----0--------0--|
A|------------------------------------------------------------|
E|-3------3------3-------3--------3------3-----3-------3------|


G               C              G        C
Catch a boat to England, baby, maybe to Spain,
G        C            G             C       
Wherever I have gone, wherever I've been and gone,
G        C
Wherever I have gone
    D      C              G
The blues     are all the same.

Send out for whisky, baby, send out for gin,
Me and room service, honey, me and room service, babe,
Me and room service
Well, we're living a life of sin

When I'm not drinking, baby, you are on my mind,
When I'm not sleeping, honey, when I ain't sleeping, mama,
When I'm not sleeping
Well you know you'll find me crying.

Try another city, baby, another town,
Wherever I have gone, wherever I've been and gone,
Wherever I have gone
The blues come following down.

Living is a gamble, baby, loving's much the same,
Wherever I have played, wherever I throw them dice,
Wherever I have played
The blues have run the game.

Maybe tomorrow, honey, someplace down the line,
I'll wake up older, so much older, mama,
Wake up older
And I'll just stop all my trying.

Catch a boat to England, baby, maybe to Spain,
Wherever I have gone, wherever I've been and gone,
Wherever I have gone
The blues are all the same.


************************************

| h  Hammer-on

************************************
Suggest correction
comments
print report bad tab
3 comments total.
0 reply
Ashratempel 544 Jan 17, 2017 12:22 AM, edited at 05:24 am

I have taken time to do research about this tab + song and came to the conclusion that some parts in the tab is not exact to the album version. The chords are right and its mostly right. The first to bars and the bass line is 100% correct.

0 reply
Matthewerm 122 Feb 10, 2017 05:09 PM, edited on April 3 2017, 09:47 pm

e|-------------------------3----------------------------------|
B|----0----------0h1----1------------0h3---0---0h1-------1----|
G|----------0----------------------------------------0--------|
D|----0-------0---h2-2-------2-------0------0---h2-2-------0--|
A|------------------------------------------------------------|
E|-3------3------3-------3--------3------3-----3-------3------|

e|---------------|------------|-----------3--------------|
B|----1----------|----1-------|-0---h1--1----0-----------|
G|2--------0-----|---------0--|----0---------------------|
D|---0--------0h2|----2-----0-|---0-------------0----0---|
A|---------------|------------|--------------------------|
E|3------3-------|3------3----|-3-----3------3----3----3-|

guest
You may want to rate the tab now too:
select rating
Wanna post a correction for this tab? Suggest correction