Oops, an error
Loading. Please wait.

My Name Is Carnival Tab

version 1
version 1

Whole song

15,415 views 48 this week
2 commentsread comments
1 2 3 4 5
x 4
add to favorites
launch autoscroll
font size
0
reset
how to read this tab
guitar tuner
Autoscroll
slow
fast
+/-
esc
set tempo
stop
Author
Difficulty
advanced
Jackson C. Frank - My Name Is Carnival
Standard - Capo # 5 (I think?)
Visit: http://jacksoncfrank.wordpress.com/

[Intro / main riff]
  Asus2    Asus2/G
e|---0----------0--|---0-------------|
B|---------0-------|---------0----0--|
G|------2-----2----|------2-----2----|
D|---2---2---2---2-|---2---2---2---2-|
A|-0---0-----------|-0---0-----------|
E|---------3---3---|---------3---3---|

 Asus2    Asus2/G
e|---0----------0--|-----0-------------|
B|---------0-------|-----------0----0--|
G|------2-----2----|--------2-----2----|
D|---2---2---2---2-|-----2---2---2---2-|
A|-0---0-----------|-0-0---0-----------|
E|---------3---3---|-----------3---3---|

 Asus2               G                 D        Em
e|---0-----0----|--------3----3--3----|-2----2---0--|
B|--------------|----------0---0---0--|----3-----0--|
G|------2-----2-|---------------------|---2---2--0--|
D|---2---2---2--|-------0---0---0---0-|-0---0----2--|
A|-0---0---0----|---------------------|----------2--|
E|--------------|-0-2-3---3---3---3---|----------0--|

I see your face, in every place, that I'll be going
I read your words, like black hungry birds, read every sowing
Spin and call, throw the ball, my name is Carnival
Sad music in the night, sings a stream of light, out of chorus
Voices you might hear, appear and disappear in the forest
Short and tall, come throw the ball, my name is Carnival
Stings of yellow tears, drip from black wired fears in the meadow
And their white halos spin, with an anger that is thin and turns to sorrow
King of all, hear my call, it's Carnival
Here there is no law, but the arcade's penny claw, hanging empty
The painted laughing smile, the turning of the stile, do not envy
Where the small can steal the ball, touch the face of Carnival
The fat woman frowns, at screaming frightened clowns that stand enchanted
And the shadow lion waits, outside your iron gates with one wish granted
Colors all, come throw the ball, my name is Carnival
Without a thought or sigh, you come to hypnotise the danger
In a world that comes apart, there is no single heart, and life is stranger
Wheel and call, cloud dreams all, in the name of Carnival
Wheel and call, spin and call my name, is Carnival
Suggest correction
comments
print report bad tab
2 comments total.
+2 reply
vdub5645 10 Apr 22, 2013 01:11 PM

i think it's capo on 6, but good stuff. thanks man.

0 reply
chrismurphymu 10 Feb 17, 2016 05:25 AM

Pretty good to me, nice one mate :-) it's great that it's not just 200+ versions of a Green Day or Coldplay song that end up on UG, but genuine works of genius, which I think this song is.

guest
You may want to rate the tab now too:
select rating
Wanna post a correction for this tab? Suggest correction