Oops, an error
Loading. Please wait.

Amazing Grace Bass Tab

18,763 views 15 this week
1 commentread comment
1 2 3 4 5
x 7
add to favorites
launch autoscroll
font size
0
reset
guitar tuner
Autoscroll
slow
fast
+/-
esc
set tempo
stop
Help us to improve Ultimate-Guitar.com Take our survey!
×
Jaco Pastorious
Amazing Grace

This is the Jaco Pastorious' version of "Amazing Grace" using the 
harmonics on the bass. This tab is gonna be different because it 
has harmonics.  Here is an example if you see,

G--3.2------
D-----------
A-----------
E-----------
it means to lightly touch the g string a lottle past the 3rd fret 
(the x on my neck diagram)-
|------------|------------|------------|---x--------| G
|------------|------------|------------|------------| D 
|------------|------------|------------|------------| A
|------------|------------|------------|------------| E
nut      1st fret      2nd Fret	    3rd Fret	 4th Fret

so here it is...
(remember, this is all harmonics, so just lightly tough the string where noted 
and pluck lightly to get the right sound, dont fret it)

G-|------5---3.8--------5---3.8--------5--------------|
D-|--5------------3.2------------3.2------------5--5--|
A-|----------------------------------------3.2--------|
E-|---------------------------------------------------|

G-|--5---3.8---------5----3.8---3.8---3.2----3.2------|
D-|------------3.2------------------------------------|
A-|---------------------------------------------------|
E-|---------------------------------------------------|

G-|--3.8---3.2---3.2---3.8----------5---3.8-----------|
D-|--------------------------3.2---------------3.2----|
A-|---------------------------------------------------|
E-|---------------------------------------------------|

G-|---5-----------------5---3.8--------5---3.8------5-|
D-|-------------5---5-------------3.2----------3.2----|
A-|-------3.2-----------------------------------------|
E-|---------------------------------------------------|

well, there it is, you have to listen to the song for 
the timing, but im pretty sure that the tabs are correct.

otherside311@aol.com
Suggest correction
comments
print report bad tab
1 comment total.
0 reply
SehestedtSM 91 Sep 12, 2009 08:44 PM

where can i find the audio/video for this, i cant get the exact rythym i get stuck around here
G-|--5---3.8---------5----3.8---3.8---3.2----3.2------|
D-|------------3.2------------------------------------|
A-|---------------------------------------------------|

guest
You may want to rate the tab now too:
select rating
Wanna post a correction for this tab? Suggest correction