Oops, an error
Loading. Please wait.

American Boy bass

40 views 6 this week
no commentswrite comment
1 2 3 4 5
3 more votes to show rating
add to favorites
×
Save as Personal and add changes to this tab that will be seen only by you. Learn more ›
×
You can save this tab as Personal to edit and correct it or add notes. All changes will be seen only by you. Learn more »
launch autoscroll
font size
0
reset
guitar tuner
edit
Autoscroll
slow
fast
+/-
esc
set tempo
stop
Jaco Pastorius - American Boy
Tuning - Standard
Time - 4/4
tabbed by electricbunny

[A Section]                                                         
G|--------------------------------|
D|------------------------0-------|
A|--------------------------------|
E|--------------------------------|

G|--------2-------0---------------|----2---0-----------------------|
D|--------------------------------|------------------------0-------|
A|3---------------------------3---|--------------------------------|X7
E|--------------------3-----------|----------------3---------------|

[Turnaround]                                                        
G|--------------------------------|--------------------------------|
D|--------------------------------|--------------------------------|
A|3-------------------------------|--------------------------------|
E|----0-------1-------2---2---2---|3---3---3---3---3---3---3---3---|

G|--------------------------------|--------------------------------|
D|--------------------------------|3---------------3---------------|
A|--------------------------------|--------------------------------|
E|3---3---3---3---3---3---3---3---|--------------------1-----------|
                                                                    
G|--------------------------------|
D|3-------------------------------|
A|--------------------------------|
E|----1---------------------------|

[A section]                                                         
G|----2---0-----------------------|
D|------------------------0-------|
A|--------------------------------|
E|----------------3---------------|

G|--------2-------0---------------|----2---0-----------------------|
D|--------------------------------|------------------------0-------|
A|3---------------------------3---|--------------------------------|X9
E|--------------------3-----------|----------------3---------------|

[Turnaround]                                                       
G|--------------------------------|--------------------------------|
D|--------------------------------|--------------------------------|
A|3-------------------------------|--------------------------------|
E|----0-------1-------2---2---2---|3---3---3---3---3---3---3---3---|

G|--------------------------------|--------------------------------|
D|--------------------------------|3---------------3---------------|
A|--------------------------------|--------------------------------|
E|3---3---3---3---3---3---3---3---|--------------------1-----------|

G|--------------------------------|--------------------------------|
D|3-------------------------------|--------------------------------|
A|------------------------0---2---|3-------------------------------|
E|----1---------------3-----------|--------------------------------|

[A section]                                                         
G|----2---0-----------------------|
D|------------------------0-------|
A|--------------------------------|
E|----------------3---------------|

G|--------2-------0---------------|----2---0-----------------------|
D|--------------------------------|------------------------0-------|
A|3---------------------------3---|--------------------------------|X14
E|--------------------3-----------|----------------3---------------|

[Turnaround]                                                       
G|--------------------------------|--------------------------------|
D|--------------------------------|--------------------------------|
A|3-------------------------------|--------------------------------|
E|----0-------1-------2---2---2---|3---3---3---3---3---3---3---3---|

G|--------------------------------|--------------------------------|
D|--------------------------------|3---------------3---------------|
A|--------------------------------|--------------------------------|
E|3---3---3---3---3---3---3---3---|----1---------------1-----------|

G|--------------------------------|
D|3-------------------------------|
A|------------------------0---2---|
E|----1---------------3-----------|
 
[A Section]                                                        
G|----2---0-----------------------|--------2-------0---------------|
D|------------------------0-------|--------------------------------|
A|3-------------------------------|3-------------------------------|X7
E|----------------3---------------|--------------------3-----------|

G|----2---0-----------------------|----------------------------5---|
D|------------------------0-------|--------------------------------|
A|3-------------------------------|3-------------------------------|
E|----------------3---3-----------|--------------------------------|

G|--------------------------------|--------------------------------|
D|--------------------------------|--------------------------------|
A|--------------------------------|--------------------------------|
E|--------------------------------|----------------------------4---|
 
[Turnaround]                                                       
G|----2-2-0-----------------------|--------------------------------|
D|------------------------0-------|--------------------------------|
A|--------------------------------|--------------------------------|
E|3---------------3---3-----------|0-------1-------2---2---2---3---|

G|--------------------------------|--------------------------------|
D|--------------------------------|--------------------------------|
A|--------------------------------|--------------------------------|
E|3---3---3---3---3---3---3---3---|3---3---3---3---3---3---3---3---|

G|--------------------------------|--------------------------------|
D|3---------------3---------------|3-------------------------------|
A|--------------------------------|--------------------------------|
E|--------1-----------1-----------|----1---------------------------|
 
[A Section]                                                         
G|----2---0-----------------------|--------2-------0---------------|
D|------------------------0-------|--------------------------------|
A|--------------------------------|3---------------------------3---|
E|----------------3---------------|--------------------3-----------|

G|----2---0-----------------------|
D|------------------------0-------|
A|--------------------------------|
E|----------------3---------------|
 
[Turnaround]                                                        
G|--------------------------------|--------------------------------|
D|--------------------------------|--------------------------------|
A|--------------------------------|--------------------------------|
E|3---3---3---3---3---3---3---3---|3---3---3---3---3---3---3---3---|

G|--------------------------------|--------------------------------|
D|----------------3---------------|3-------------------------------|
A|--------------------------------|----------------------------3---|
E|1---1---------------1-----------|----1---------------------------|
 
[A Section]                                                        
G|----2---0-----------------------|
D|------------------------0-------|
A|--------------------------------|
E|----------------3---------------|

G|--------2-------0---------------|----2---0-----------------------|
D|--------------------------------|------------------------0-------|
A|3---------------------------3---|--------------------------------|X5
E|--------------------3-----------|----------------3---------------|

G|--------2-------0---------------|----2---0-----------------------|
D|--------------------------------|---------------------0---2---0--|
A|3---------------------------3---|--------------------------------|
E|--------------------3-----------|----------------3---------------|
 
                                  [Turnaround]                      
G|--------------------------------|--------------------------------|
D|--------------------------------|--------------------------------|
A|--------------------------------|--------------------------------|
E|0-------1-------2-------3---3---|3---3---3---3---3---3---3---3---|

G|--------------------------------|--------------------------------|
D|--------------------------------|--------3---------------3-------|
A|--------------------------------|--------------------------------|
E|3---3---3---3---3---3---1---1---|------------1---------------1---|

G|--------------------------------|
D|--------------------------------|
A|----------------------------3---|
E|--------------------------------|
 
[A Section]                                                         
G|----2---0-----------------------|--------2-------0---------------|
D|------------------------0-------|--------------------------------|
A|--------------------------------|3---------------------------3---|
E|----------------3---------------|--------------------3-----------|

                                   [Turnaround]                     
G|----2---0-----------------------|--------------------------------|
D|------------------------0-------|--------------------------------|
A|--------------------------------|3-------------------------------|
E|----------------3---------------|----0-------1-------2-------2---|

G|--------------------------------|--------------------------------|
D|--------------------------------|--------------------------------|
A|--------------------------------|--------------------------------|
E|3---3---3---3---3---3---3---3---|3---3---3---3---3---3---3---3---|

G|--------------------------------|--------------------------------|
D|----------------3---------------|3-------------------------------|
A|--------------------------------|----------------------------3---|
E|1---1---------------1-----------|----1---------------------------|
 
[A Section]                                                         
G|----2---0-----------------------|--------2-------0---------------|
D|------------------------0-------|--------------------------------|
A|--------------------------------|3---------------------------3---|X5
E|----------------3---------------|--------------------3-----------|
Suggest correction
Creating personal tab
Creating personal tab
You can edit any tab online and save it as your Personal.

You can edit, replace or remove any tab part or add personal notes – all changes will be seen only by you.

Personal tabs can be accessed anytime from any device, even offline.
Learn more »
Give kudos to tab author, rate the tab!
1 2 3 4 5
comments
print report bad tab
guest
You may want to rate the tab now too:
select rating
Wanna post a correction for this tab? Suggest correction