Oops, an error
Loading. Please wait.

Amerika Bass Tab

version 1
version 1

Whole song

  • Tabbed it from the original track. This is like a ... Show more

Interactive

34 views 12 this week
no commentswrite comment
1 2 3 4 5
3 more votes to show rating
add to favorites
launch autoscroll
font size
0
reset
guitar tuner
Autoscroll
slow
fast
+/-
esc
set tempo
stop
Help us to improve Ultimate-Guitar.com Take our survey!
×
Author
Difficulty
advanced
AMERIKA - Jaco Pastorius
-----------------------------------------------------------------

Tabbed By : 
piovetommy@gmail.com: 

Tuning: Standard (EADG)                       Harmonics
                                              --------- 
G|---/9-----/9--------------------9---9-------7-------------------|
D|-----------------------11--11---------------9-------------------|
A|-----------------0----------------------------------------------|
E|----------------------------------------0---------9-------------|

G|-----------------------------9------11------/13------------------------------------/9----/9-----|
D|----9-----------11----12--------------------------14----------8-----9-----10--------------------|
A|-------------------------------------------------------0----------------------------------------|
E|----------0-------------------------------------------------------------------------------------|

                                               Harmonics
                                               -----------
G|---(9)----------------------------9-----------7-----------9--9---------------/16----|
D|--------------------11----11------------------9-----------------9-----9-------------|
A|----0-------------------------------------------------------------------------------|
E|------------0---------------------------0---------9---------------------------------|

                                                      Harmonics
                                                      -------------
G|----15-----16------18-----------------------16-------7------------------------------------------13--14--16-|
D|-------------------19-----------14---16--------------9--------------14----16-14-------14--16---------------|
A|-------------------18------------------------------------------------------------18------------------------|
E|--------------------------7----------------------0-------9-------------------------------------------------|

                                                       Harmonics
                                                       ------------
G|----18----------16-----16-----------14---/14----------7-------------14(19)---14(19)---13(18)----|
D|------------------------------------------------------9-----------------------------------------|
A|----------0-------------------0-----------------------------------------------------------------|
E|-------------------------------------------------0---------9--------(0)-------------------------|

G|---13(18)-------14(19)-----16(21)----13(18)-------------------------14----------------12---------14(19)---|
D|-----------------------------------------------16(21)-----14(19)----------------------9-------------------|
A|-------------------------------------------------------------------------12----11-----9-------------------|
E|--(0)------0----------------------------------------------------------------------------------------11----|

G|-(14)(19)----/14----/14---------11---11--------14--16--18------------------------9----|
D|---------------------------0----0----0-----------------------------14----14-----------|
A|------------------------------------------------------------0------0-----0------------|
E|-(11)----------------------------------------------------------------------------9----|

G|--11-----14----------------16------14---------------/11-----------------------------|
D|------------------14---------------------------------------0------------------------|
A|------------------------------------------------------------------------------------|
E|--10-----11-------12-------13------14---------------------------------5-------7-----|

                         Triplet
   (FAST part)            -------
G|------------------------------------------------------------------------------|
D|---------------------------------4-----------4--6--7--4--6--7------------2----|
A|--4---5-------4--5--7---4-5-7-------(5)-(7)------------------------------0----|
E|----------7-------------------------------------------------------------------|
.
***********************************
| /  slide up
| \  slide down
| h  hammer-on
| p  pull-off
| ~  vibrato
| +  harmonic
| x  Mute note
|(9) Ghost note
***********************************
Suggest correction
Give kudos to tab author, rate the tab!
1 2 3 4 5
comments
print report bad tab
guest
You may want to rate the tab now too:
select rating
Wanna post a correction for this tab? Suggest correction