Oops, an error
Loading. Please wait.

Chicken Bass Tab

version 1
version 1

Whole song

48,467 views 90 this week
no commentswrite comment
1 2 3 4 5
worth learning
x 8
add to favorites
launch autoscroll
font size
0
reset
guitar tuner
Autoscroll
slow
fast
+/-
esc
set tempo
stop
Help us to improve Ultimate-Guitar.com Take our survey!
×
Difficulty
novice
1.

G|------------------------------------------------------|
D|---------------5-8------------------------------------|
A|------5-5-6-6-8---------------------------------------|
E|--6-6-------------------------------------------------|(x8)


2.

G|------------5-8-----------------------------------------|
D|-----5-5-6-6----8---------------------------------------|
A|--6-6---------------------------------------------------|
E|--------------------------------------------------------|(x2)


3.

G|--------------4-7-------------------------------------|
D|-----4-4-5-5-7----------------------------------------|
A|--5-5-------------------------------------------------|
E|------------------------------------------------------|


4.

G|--------------------------------------------------------|
D|--------------2-5---------------------------------------|
A|-----2-2-3-3-5------------------------------------------|
E|--3-3---------------------------------------------------|


5.

G|-------------2-------------------------------------|
D|-----2-2-3-3---------------------------------------|
A|--3-3----------------------------------------------|
E|---------------------------------------------------|


6.

G|--3-1-----------3-------------------------------|
D|------3-1---------------------------------------|
A|----------4-1-----------------------------------|
E|--------------4---------------------------------|


[Solo]

(when you play the first verse for third time)
G|----15-19---------------------------------------|
D|--15--------------------------------------------|
A|------------------------------------------------|
E|------------------------------------------------|


G|--------15-19-15--15--15-20-19------------------|
D|--15-17-------------17--------------------------|
A|------------------------------------------------|
E|------------------------------------------------|

G|---------------------15--14-14-14-12--12------|
D|--17-15-------13--13-13-------------14--------|
A|-------17-15----15----------------------------|
E|----------------------------------------------|


G|-------15-19-15--------------------------------|
D|--15-19----------------------------------------|
A|-----------------------------------------------|
E|-----------------------------------------------|(x3)  

G|--14-12------------15--------------------------|
D|-------14-12-----------------------------------|
A|------------15-12------------------------------|
E|-----------------15----------------------------|
Suggest correction
comments
print report bad tab
guest
You may want to rate the tab now too:
select rating
Wanna post a correction for this tab? Suggest correction