Oops, an error
Loading. Please wait.

Come On Come Over Bass Tab

version 1
version 1

Whole song

Interactive

47,236 views 153 this week
10 commentsread comments
1 2 3 4 5
accurate
x 15
add to favorites
launch autoscroll
font size
0
reset
guitar tuner
Autoscroll
slow
fast
+/-
esc
set tempo
stop
Help us to improve Ultimate-Guitar.com Take our survey!
×
COME ON, COME OVER by J. Pastorius & B. Herzog
==============================================

 Intro lick
                [VERSE 1]
   w q s s s  s    s  E|h s s s  s   s E|h s s s  s 1  s  E|h s s s  s
G|--------------|--8---------------|-----------------|-8---------------|
D|-R-R-8-8-9-10-|*---10------------|-------8-8-9-10-*|---10------------|
A|--------------|*--------7-8-9-10-|----------------*|--------7-8-9-10-|
E|--------------|------------------|-8-8-------------|-----------------|

             [CHORUS]
   q q q e e   e s s s s s s s s s s s s s s   e s s s s s s s s s s s s s s
G|-----------|-------5---4-4-----------------|---7-----4---------------------|
D|---R-R-----|---7-7---7-----7-7-------------|-----X-7---X-X-7-7-------------|
A|-------3-4-|-5-----------------2-2-3-X-4-4/|-5-----------------2-2-3-X-4-4/|
E|-8---------|-------------------------------|-------------------------------|
             A                               B

   e s s s s s s s s s s s s s s   e s s s s s s s s s s s s s s
G|-------5---4-4-----------------|---7-----4---------------------|
D|---7-7---7-----7-7-------------|-----X-7---R-X-4-4-5-5-6-6-7-7-|
A|-5-----------------2-2-3-X-4-4/|-5-----------------------------|
E|-------------------------------|-------------------------------|
  A                               C

   e s s s s s s s s s s s s s s   e s s s s s s s s s s s s s s
G|-------5---4-4-----------------|---7-----4---------------------|
D|---7-7---7-----7-7-------------|-----X-7---X-X-7-7-------------|
A|-5-----------------2-2-3-X-4-4/|-5-----------------2-2-3-X-4-4/|
E|-------------------------------|-------------------------------|
 A                               B

   e s s s s s s s s s s s s s s   e  s  s s  s s s  s  s s s s s s  s
G|-------5---4-4-----------------|---------8----7-7--------------------|
D|---7-7---7-----7-7-------------|---10-10---10-----10-10-7-7-8-8-9-10-|
A|-5-----------------5-5-6-6-7-7-|-8-----------------------------------|
E|-------------------------------|-------------------------------------|
 D                               E

 [VERSE 2]
    s  E|h s s s  s   s E|h s s s  s 9
G|--8---------------|-----------------|
D|*---10------------|-------8-8-9-10-*|
A|*--------7-8-9-10-|----------------*|
E|------------------|-8-8-------------|


The second chorus is very similar to the first, and consists of measures:
AB
AC
AB
A, followed by:
  e s s s s s s e s s s s s s
G|-----------------------------|
D|-----------------------------|
A|-5---------------2-2-3-3-4-4-|
E|---2-2-3-3-4-4-5-------------|

AB
AC
AB
DE

"X" indicates a dead note.

As you can see, the line as written is fairly repetitious.  Hopefully, I
haven't made too many mistakes in representing Hubbard's line.



************************************

| /  Slide up

************************************
Suggest correction
comments
print report bad tab
10 comments total. Showing first comments.
0 reply
Wiegraf 50 wrote on April 15 2005, 12:00 am

This is great.

0 reply
therockdawg1138 50 wrote on March 27 2006, 05:26 pm

Good tab.

0 reply
weeuw_bassist 10 wrote on April 18 2006, 02:44 pm

maybe its cuz im pretty new to this shtuff but what do all the e's ans s's and R's mean? can anyone tell me or is it some supreme device to irritate me?

guest
You may want to rate the tab now too:
select rating
Wanna post a correction for this tab? Suggest correction