Oops, an error
Loading. Please wait.

Teen Town Bass

version 2
version 2

Whole song

Interactive

24,340 views 72 this week
no commentswrite comment
1 2 3 4 5
x 5
add to favorites
launch autoscroll
font size
0
reset
guitar tuner
Autoscroll
slow
fast
+/-
esc
set tempo
stop
G|----18-16-18-16-----18-16-15-13-15-13------20-18-20-18---20-18-|
D|----18-16-18-16-----18-16-15-13-15-13------20-18-20-18---20-18-|
A|---------------------------------------------------------------|
E|---------------------------------------------------------------|

G|-16-14-16-14-----17-17-|
D|-16-14-16-14-----------|
A|-----------------------|
E|-----------------------|

G|------5---3------------------------2------------------------------5-|
D|--------------5-------5-7-5---------4--------------------3--5-6-7---|
A|-----3---3--3-----6h7-------7-5-4----2-2----------3-5-3----0--------|
E|--------------------------------------------1-4h5-------------------|

G|-7-8-9---------------------------------------2-----------------------|
D|--------9-7-9----------------5----------------4---2------------------|
A|----------------5-5------6h7--5-5------2-3-4---4-2--4~-------5-5-3---|
E|------------------------------------------------------------------1-1|

G|-------------------------------------------------------8p7---8-8------|
D|--------------5-6-7-----------------------------7-6-5------10----10---|
A|-3-4-5--7-8-9-------6-5-----------0-2-3-4-5-6-7---------------------8-|
E|------------------------8-5-------------------------------------------|

G|-----5-7----17-17--------------------------------------------------15-17-17-|
D|---7-------------------------------7-4--------5-2----------------17---------|
A|-------------------------3-5-----7-----5-4-------5-3------------------------|
E|-------------------3-5-3-------------------7----------1-2-3-----------------|

G|------5---3------------------------2------------------------------5-|
D|--------------5-------5-7-5---------4--------------------3--5-6-7---|
A|-----3---3--3-----6h7-------7-5-4----2-2----------3-5-3----0--------|
E|--------------------------------------------1-4h5-------------------|

G|-7-8-9---------------------------------------2-----------------------|
D|--------9-7-9----------------5----------------4---2------------------|
A|----------------5-5------6h7--5-5------2-3-4---4-2--4~-------5-5-3---|
E|------------------------------------------------------------------1-1|

G|-------------------------------------------------------------------|
D|--------------5-6-7---------------------------5-6-7----------------|
A|-3-4-5--7-8-9-------6-5-----------3-4-5-7-8-9-------6-5------------|
E|------------------------8-5-----------------------------8-5--------|

G|-----------------------------------------------------------------------|
D|------------------------------2-2-4---2------------------------2-2-4---|
A|-----------2-2-4~-----0-0-4-4-----------------2-2-4~---0-0-4-4---------|
E|--0-0--4-4-----------------------------0-0-4-4-------------------------|

G|---4-3----6-3---------4---------------------------------------------6--------|
D|--2---5-4----5-------4----4h5-x----6----------------2-4-0--6-8---8-6--8-6----|
A|------------------------7---------4-4---------2-4-2-----------8-----------6~-|
E|--------------------------------------2--------------------------------------|

(repeat 3 times)
G|----------------|
D|--4-4-2-4-4-2-4-|
A|----------------|
E|----------------|

G|------------------|
D|--------------5-5-|
A|-------7-----5----|
E|-------0----5-----|



************************************

| h  Hammer-on
| ~  Vibrato
| p  Pull-off
| x  Dead note

************************************
Suggest correction
comments
print report bad tab
guest
You may want to rate the tab now too:
select rating
Wanna post a correction for this tab? Suggest correction