Oops, an error
Loading. Please wait.

The Chicken Bass

version 1
version 1

Whole song

Interactive

15,655 views 1 this week
2 commentsread comments
1 2 3 4 5
x 3
add to favorites
launch autoscroll
font size
0
reset
guitar tuner
backing track
0:00
0:00
Autoscroll
slow
fast
+/-
esc
set tempo
stop
Author
Difficulty
Tuning
novice
E A D G
uhm this is teh only thing i have on the chicken sorry. but i think it sounds pretty 
good so here ya go.

G|---------------------------------------------|
D|---------------5--8--------------------------|   x4
A|-----55-66---8-------------------------------|
E|--66-----------------------------------------|

G|---------------5--8--------------------------|
D|-----55-66---8-------------------------------|   x2
A|--66-----------------------------------------|
E|---------------------------------------------|

G|---------------4--7--------------------------|
D|-----44-55---7-------------------------------|   x2
A|--55-----------------------------------------|
E|---------------------------------------------|

G|---------------------------------------------|
D|-----22-33--5-4-3----------------------------|   x2
A|--33-----------------------------------------|
E|---------------------------------------------|

G|--1-3----------------------------------------|
D|------1-3------------------------------------|
A|----------1-4--------------------------------|
E|--------------4--6---------------------------|


and thast the end to all i know from the chicken. i'm pretty sure that the first 3 and 
last one are correct but im not sure about the forth one. any suggestions i'm willing to listen.
Suggest correction
Give kudos to tab author, rate the tab!
1 2 3 4 5
comments
print report bad tab
2 comments total.
0 reply
slash6464 62 Mar 23, 2006 04:03 PM

whoops i made a mistake in there its not actually
---1-3
------1-3
---------1-4---
-------------4-6

its actualy

---3-1
------3-1
---------4-1---
-------------4-6

0 reply
JacoBass 10 Dec 08, 2008 09:12 AM

hey dude thanks for the tab

guest
You may want to rate the tab now too:
select rating
Wanna post a correction for this tab? Suggest correction