Oops, an error
Loading. Please wait.

Al Pasar El Verano Bass

17 views 3 this week
no commentswrite comment
1 2 3 4 5
3 more votes to show rating
add to favorites
launch autoscroll
font size
0
reset
guitar tuner
×
Best way to learn
"Al Pasar El Verano"
Autoscroll
slow
fast
+/-
esc
set tempo
stop
Hace muchos años que visito  y nunca me había dado el tiempo
de subir una tablatura, acá esta el bajo de Al Pasar el Verano.
Cualquier aporte o duda a livingdied@
Saludos!
************************************************************************

Intro
G ----------------------------------------------------------------
D ----------------------------------------------------------------
A --7-7----5-7-9-7-5-5-------5-7----------------------------------
E -------7---------------5-7-----7-5-5---0-3-5-7-3-0-0---0-0---0--

G ----------------------------------------------------------------
D ---------5-7-9-7------------------------------------------------
A --7-7--7---------5-5-------5-7----------------------------------
E -----------------------5-7-----7-5-5---0-3-5-7-3-0-0---0-0---0--

Verso 1
Nunca yo pensé, que al pasar el verano...
G ---------------------------------------------
D ---------------------------------------------
A -----7-------9---9-10------------------------
E --0-----5-7----------10---10-12---x-5--3--0--

G ---------------------------------------------
D ---------------------------------------------
A -----7-------9---9-10------------------------
E --0-----5-7----------10---10-12-12-12-12-12--


Coro
Vete oh, vete!!!
G ----------------------------------------------------------------
D ----------------------------------------------------------------
A --7-7----5-7-9-7-5-5-------5-7----------------------------------
E -------7---------------5-7-----7-5-5---0-3-5-7-3-0-0---0-0---0--

G ----------------------------------------------------------------
D ---------5-7-9-7------------------------------------------------
A --7-7--7---------5-5-------5-7----------------------------------
E -----------------------5-7-----7-5-5---0-3-5-7-3-0-0---0-0---0--


Verso 2
Cuando te encontré en la fiesta karaoke...
G ---------------------------------------------
D ---------------------------------------------
A -----7-------9---9-10------------------------
E --0-----5-7----------10---10-12---x-5--3--0--

G ---------------------------------------------
D ---------------------------------------------
A -----7-------9---9-10------------------------
E --0-----5-7----------10---10-12-12-12-12-12--


Coro
Vete oh, vete!!!
G ----------------------------------------------------------------
D ----------------------------------------------------------------
A --7-7----5-7-9-7-5-5-------5-7----------------------------------
E -------7---------------5-7-----7-5-5---0-3-5-7-3-0-0---0-0---0--

G ----------------------------------------------------------------
D ---------5-7-9-7------------------------------------------------
A --7-7--7---------5-5-------5-7----------------------------------
E -----------------------5-7-----7-5-5---0-3-5-7-3-0-0---0-0---0--


Puente
Y al poco tiempo descubrí...
G -------------------------------------------------------
D -------------------------------------------------------
A ----------5-3-2-5-7-7-7-7-7-7-7----10-10--9-10-9-10-9--
E --9-5-3-2----------------------------------------------

G -------------------------------------------------------
D ------------------------5-5-5-5-5-5-5-5-7-7-7-7--------
A --5-3-2-5-7/9-7-5-7-----------------------------5-5-5--
E -------------------------------------------------------


Solo de Guitarra
G ----------------------------------------------------------------
D ----------------------------------------------------------------
A --7-7----5-7-9-7-5-5-------5-7----------------------------------
E -------7---------------5-7-----7-5-5---0-3-5-7-3-0-0---0-0---0--

G ----------------------------------------------------------------
D ---------5-7-9-7------------------------------------------------
A --7-7--7---------5-5-------5-7----------------------------------
E -----------------------5-7-----7-5-5---0-3-5-7-3-0-0---0-0---0--

G ---------------------------------------------
D ---------------------------------------------
A -----7-------9---9-10------------------------
E --0-----5-7----------10---10-12---x-5--3--0--

G ---------------------------------------------
D ---------------------------------------------
A -----7-------9---9-10------------------------
E --0-----5-7----------10---10-12-12-12-12-12--


Coro y final
Vete oh, vete!!!
G ----------------------------------------------------------------
D ----------------------------------------------------------------
A --7-7----5-7-9-7-5-5-------5-7----------------------------------
E -------7---------------5-7-----7-5-5---0-3-5-7-3-0-0---0-0---0--

G ----------------------------------------------------------------
D ---------5-7-9-7------------------------------------------------
A --7-7--7---------5-5-------5-7----------------------------------
E -----------------------5-7-----7-5-5---0-3-5-7-3-0-0---0-0---0--


Termina con un MI natural


Espero que esta partitura les sirviera...
tienen que poner de lo suyo para que salga con ritmo.

Saludos!
Suggest correction
Give kudos to tab author, rate the tab!
1 2 3 4 5
comments
print report bad tab
guest
You may want to rate the tab now too:
select rating
Wanna post a correction for this tab? Suggest correction