Oops, an error
Loading. Please wait.

Al Pasar El Verano Chords

15 views 1 this week
no commentswrite comment
1 2 3 4 5
3 more votes to show rating
add to favorites
launch autoscroll
font size
0
reset
transpose
0
reset
simplify chords
display chords
guitar tuner
Autoscroll
slow
fast
+/-
esc
set tempo
stop
Help us to improve Ultimate-Guitar.com Take our survey!
×
Intro (Riff 1)

E ------------------------------------
B ------------------------------------
G --9-9-------7---9---12---9---7-7----
D --9-9---9---7---9---12---9---7-7----
A --7-7---9---5---7---10---7---5-5----
E --------7---------------------------

E ------------------------------------
B ------------------------------------
G ----------7--9----------------------
D --7---9---7--9--9---7--7------------
A --7---9---5--7--9---7--7------------
E --5---7---------7---5--5------------

E ----------------------------------------
B ----------------------------------------
G ----------------------------------7--7--
D --2---5---7---9---5---2--2--------7--7--
A --2---5---7---9---5---2--2--------5--9--
E ------3---5---7---3---------------------


Verso 1

Em (con cejillo en 7mo traste) Bm G (10mo traste) Em x 4
Nunca yo pense...

Coro (Riff 1) (igual al intro)
Vete, oh vete...

Verso 2 (igual al primero)

Em Bm G Em x 4
Cuando te encontré...

Coro (Riff 1)
Vete, oh vete...

Puente:

Bm        D5           E5/D5/E5
Y al poco tiempo descubrí...

Bm          D5                       E5
Que como un tonto no voy a salir de aquí!!!

Riff 1 (Intro)

Solo

Verso 3 (igual a los anteriores)

Coro


Canción "pelua"...todos los creditos a Janoti.
Suggest correction
Give kudos to tab author, rate the tab!
1 2 3 4 5
comments
print report bad tab
guest
You may want to rate the tab now too:
select rating
Wanna post a correction for this tab? Suggest correction