Oops, an error
Loading. Please wait.

El Guerrero Despierta Tab

29 views 1 this week
no commentswrite comment
1 2 3 4 5
3 more votes to show rating
add to favorites
launch autoscroll
font size
0
reset
how to read this tab
guitar tuner
Autoscroll
slow
fast
+/-
esc
set tempo
stop
Help us to improve Ultimate-Guitar.com Take our survey!
×
INTRO ? ESTROFA ? CORO

e|-------------------------------------------------------------------------
b|--3---3--3--3-3----3--3--3--3-3---2--2---2--2--2------1--1-1--3-3-1--1---
g|--4---4--4--4-4----3--3--3--3-3---2--2---2--2--2------2--2-2--2-2-2--2---
d|-------------------------------------------------------------------------
a|--------------------------------2------2------------2---2----2---2-2-----
E|-3---3--3--3-----2--2--2--2--------2------2------------------------------

Estrofa PARTE B (?Quiero subir y?)

e|-------------------5--5-5---5-5------------------------------------------
b|--7---7--7--7-7----5--5-5---5-5-----5--5--5--5-5-----3-3-3--5-5--4--4----
g|--7---7--7--7-7---------------------6--6--6--6-6-----4-4-4--4-4--5--5----
d|-------------------------------------------------------------------------
a|-----------------0---0--0--0-------5-----5----------2--2---2------2------
E|-7---7--7--7--------------------------5-----5----------------------------

"La tentación..."

e|----------------------------
b|--3-3-3-3-3--2-2-2-2-2------
g|--3-3-3-3-3--2-2-2-2-2------ x4
d|----------------------------
a|-1---1------0---0-----------
E|---1---1------0---0---------

e|---5--4---2---
b|---5--5---3---
g|--------------
d|--------------
a|--------------
E|-5---4---3----

**Solo**

e|-----5-7-7h9-7-5---5.7-------5.7---5-3-323-2------------------------
b|-5h7-----------7---------7----------------5-5-3h5h3-232-2-----------
g|-------------------------------------------------------4-4-2-2h4----
d|------------------------------------------------------------4-------
a|--------------------------------------------------------------------
E|--------------------------------------------------------------------

e|---------5-7-7h9--7h6-9--7h6--6------------------------------2-3----
b|-----5-7-----------------------7----------------------------3---5---
g|-467-----------------------------9h7-6764-2----------------4--------
d|--------------------------------------------5-4542------2-5---------
a|---------------------------------------------------5----------------
E|--------------------------------------------------------------------

e|-5h7-7-5--5h7h9-7-5-------------------------3h0-------3h5-2-2-------
b|--------------------7-57-57-5------------------3--------------5-5---
g|------------------------------46-46-4-2-2-------4542--------------3-
d|---------------------------------------4-4--------------------------
a|--------------------------------------------------------------------
E|--------------------------------------------------------------------


PD: creditos para quien la subio a chilemarranos...
Suggest correction
Give kudos to tab author, rate the tab!
1 2 3 4 5
comments
print report bad tab
guest
You may want to rate the tab now too:
select rating
Wanna post a correction for this tab? Suggest correction