Oops, an error
Loading. Please wait.

Tengo Que Pensar Chords

version 2
version 2

Whole song

2 views 1 this week
no commentswrite comment
1 2 3 4 5
3 more votes to show rating
add to favorites
launch autoscroll
font size
0
reset
transpose
0
reset
simplify chords
display chords
guitar tuner
Autoscroll
slow
fast
+/-
esc
set tempo
stop
Help us to improve Ultimate-Guitar.com Take our survey!
×
un besote pa mi carito-souling

Em7                    Bm
Tengo q pensar con el corazón
          A#m - Am                   Em7
Y si algún error te aleja de mi
                  Em7                    Bm
Hablaré de ti al que vea `pasar
         A#mm Am                   Em7
Por si te encuentro una vez mas

Me imagino todo el tiempo que invertiré
en olvidarte Pasaran las vidas yo podré tocar tus labios
Y sentir tu gusto
ese recuerdo q tengo de ti

         Bm             Em7
Como quisiera evadirte
         Am             Em7
Si no sintiera tu atracción
              Am                                        Em7
Es imposible estar solo Tus aromas me parten en un millón
    Bm          Am       Em7
Aunque ya no estés más

Tengo que pensar en algún buen plan
que en la oscuridad me permita ver
Y salir al sol y florecer denuevo
esconder lo malo y quemarlo al fin

         Bm             Em7
Como quisiera evadirte
         Am             Em7
Si no sintiera tu atracción
              Am                                        Em7
Es imposible estar solo Tus aromas me parten en un millón
    Bm          Am       Gm  F#m
Aunque ya no estés ni seas parte mía
    Bm          Am      Gm  F#m
Bolas de fuego y calmarán mi agonía
    Bm          Am       Gm  F#m
Parto en un viaje con destino al olvido
    Bm          Am       Em7

Aunque ya no estés más

Así tomen las notas

Am 575555  Bm 797777  Em7  - 779787


Aquí ta el solo
?

---------------------------------------------------
-----------10-10full--9-10--------8----------------
-7/9-79----------------------9-11----11-9-/11/9-7--

------------------------10--
--8-10-10/12/10-8-10/12----12-10/8/10
9-------------------------------


---------------------------------------------
-10/12/10--8------8--10/12/10--8-------------
----------------9---------------------99-----
---------------------------------------------
---------------------------------------------
---------------------------------------------

-----------------------------------------------
--------8---------------------------------------
--7/9-----77---------------7-------------------
----------------77---5-7/9---9-7/5-77-77/5-----
---------------------------------------------77-
------------------------------------------------


--------------------------------------------------
-------------------------7-10-7---7---------------
------------7---7-99--9---------9---9-77/9/7------
----5-7-7/9---9-------------------------------9---
--7-----------------------------------------------
--------------------------------------------------

ya cabros..aca esta..suena bkn segun yo
hay les mando el bajo apenas pueda..
y atentos que ley del mono se viene con todo.
vamos la monkey in accion...law of the monkey
.xequeen eso...xao
Suggest correction
Give kudos to tab author, rate the tab!
1 2 3 4 5
comments
print report bad tab
guest
You may want to rate the tab now too:
select rating
Wanna post a correction for this tab? Suggest correction