Oops, an error
Loading. Please wait.

Naghihintay tab

version 1
version 1

Whole song

by Jacob
8,665 views 1 this week
no commentswrite comment
1 2 3 4 5
1 last vote to show rating
add to favorites
×
Save as Personal and add changes to this tab that will be seen only by you. Learn more ›
×
You can save this tab as Personal to edit and correct it or add notes. All changes will be seen only by you. Learn more »
launch autoscroll
font size
0
reset
how to read this tab
guitar tuner
edit
Autoscroll
slow
fast
+/-
esc
set tempo
stop
Song:Naghihintay
Album:Naghihintay
Artist:Jacob
Date Tabbed:March,2007
Guitar Tabber:Ryan Manongdo/17/m/Montalban Rizal
              no_falter0x@yahoo.com(Friendster&YM)

  I would like to dedicate this song to Carla Viray:,(
For your questions or suggestions,just post a comment or PM me.

Gtr.Legends:
~ - let it ring
x - dead string
. - palm muting
b - bend

Gtr.Tuning:Standard(Normal)

Intro:
e|-10~--8-7--5-3-------6-5-----18-17---|
B|-----------------3-4-----------------|
G|--------------------------18---------| Piano Converted to guitar...
D|-------------------------------------|
A|-------------------------------------|
E|-------------------------------------|

Verse 1:Kelan bang makikita...
e|-------------------------|
B|-------------------------|
G|-------------------------| 2x
D|-5555--2222--5555-5555---|
A|-5555--2222--3333-3333---|
E|-3333--0000--------------|
   ....  ....  .... ....

Pre-Chorus:Huwag mo akong...
Gtr.1
e|------------------------------------------------|
B|------------------------------------------------|
G|------------------------------------------------|
D|-2222--4444--5555-4444--2222--4444-5555-77777---|
A|-2222--2222--3333-2222--2222--2222-3333-55555---|
E|-0000-------------------0000--------------------|
   ....  ....  .... ....  ....  .... ....

Gtr.2
e|----------------------------------------------------|
B|----------------------------------------------------|
G|---0~------0~---0~----0~-----0~----0~----0----------|
D|--------------------------------------------77777---|
A|--------2------3----2------------2-----3----55555---|
E|-0~------------------------0------------------------|

Chorus:Naghihintay,kahit parang...
Gtr.1
e|----------------------      ------------|
B|----------------------      ------------|
G|---------------------- 3x   -------5~---|
D|-5555-4444-2222-4444-- Then -5555--5~---|
A|-3333-2222-2222-4444--      -3333--3~---|
E|-----------0000-2222--      ------------|

Gtr.2
e|------------------------------      -----------|
B|------------------------------      -----------|
G|-9999-11111111-12121212-7777-- 3x   -9999-7~---|
D|-xxxx--x-x-x-x-xxxxxxxx-xxxx-- Then -xxxx-x----|
A|-7777--9-9-9-9-10101010-5555--      -7777-5~---|
E|------------------------------      -----------|

Pre-Verse 2:
Gtr.1
e|-----------------------|
B|-----------------------|
G|------------------5~---| 
D|-5555--2222--5555-5~---|
A|-5555--2222--3333-3~---|
E|-3333--0000------------|
   ....  ....  .... 

Gtr.2
e|-10~--8-7--5-3-------6-5---|
B|-----------------3-4-------|
G|---------------------------| Piano Converted to guitar...
D|---------------------------|
A|---------------------------|
E|---------------------------|

Verse 2:Bakit ba di mo...
Play Verse 2

Repeat Pre-Chorus:

Repeat Chorus:

Bridge(Solo):
Gtr.1
e|-----------------------------------------------|
B|-----------------------------------------------|
G|-----------------------------------------------| 
D|-5555--2222--5555-5555---4444-2222-5555-5555---|
A|-5555--2222--3333-3333---2222-2222-3333-3333---|
E|-3333--0000-------------------0000-------------|
  
Gtr.2
e|-10b--8-7--5-3------6-5---------------------------18-17b---|
B|----------------3-4----------------------------------------|
G|------------------------------7b-8----7-----16-18----------|
D|-------------------------5---------9----5------------------|
A|---------------------------5-------------------------------|
E|-----------------------------------------------------------|

Repeat Chorus:

Last Chord:
e|------|
B|------|
G|-5~---|
D|-5~---|
A|-3~---|
E|------|

End...

Naghihintay Lyrics:

Verse 1
Kelan bang makikita ng iyong mga mata
Kelan bang maririnig sayo na tayo na

Pre-Chorus:
Huwag mo akong sisihin kung ang lungkot ng aking damdamin
Bakit di mo akong subukan suyuin…suyuin

Chorus:
Naghihintay, kahit parang wala pag - asa
Handa, maghintay kahit pa may’ron kang iba
Bahala na,
Naghihintay ako na ika’y makasama
Kahit na, naghihintay
Kahit parang wala na

Verse 2
Bakit ba di mo buksan ang iyong mga mata
Nang ang oras natin ay di na masayang pa

Repeat Chorus:

Outro:
Huwag mo akong sisihin
kung biglang sumuko ang damdamin
di mo kasi ako pinapansin

            
            
Suggest correction
Creating personal tab
Creating personal tab
You can edit any tab online and save it as your Personal.

You can edit, replace or remove any tab part or add personal notes – all changes will be seen only by you.

Personal tabs can be accessed anytime from any device, even offline.
Learn more »
Give kudos to tab author, rate the tab!
1 2 3 4 5
comments
print report bad tab
guest
You may want to rate the tab now too:
select rating
Wanna post a correction for this tab? Suggest correction