Oops, an error
Loading. Please wait.

Tu Pueblo Dice Gracias Chords

version 2
version 2

Whole song

212 views 1 this week
no commentswrite comment
1 2 3 4 5
3 more votes to show rating
add to favorites
launch autoscroll
font size
0
reset
transpose
0
reset
simplify chords
display chords
guitar tuner
Autoscroll
slow
fast
+/-
esc
set tempo
stop
Help us to improve Ultimate-Guitar.com Take our survey!
×
Intro:
     G            D/F#      Em7          Cadd9
e)|-------------------------------------------|
B)|-------------------------------------------|
G)|-------------------------------------------|
D)|--------------9----------------------9-----|
A)|--10-10-10-12---12-10-9--10-10-10-12---10--|
E)|-------------------------------------------|

Luego lo hace una octava arriba.
      G            D/F#      Em7          Cadd9
e)|----------------------------------------------|
B)|--------------12-----------------------12-----|
G)|--12-12-12-14----14-12-11--12-12-12-14----12--|
D)|----------------------------------------------|
A)|----------------------------------------------|
E)|----------------------------------------------|

y para entrar ala estrofa haces este riff:
    C    G/B  Am   C    D
e)|-------------------------|
B)|-13---12--------13---15--|
G)|-----------14------------|
D)|-------------------------|
A)|-------------------------|
E)|-------------------------|


Estrofa:

G             D/F#
Oh cuan amor inagotable
Em7           C
Fidelidad incomparable
G                  D                C
Grandes cosas ha hecho Dios por su pueblo

Segundo verso:

G                 D/F#
Has sido lluvia a las naciones
Em7                 C
Cambiaste el lloro por canciones
G                   D                 C
Grandes cosas ha hecho Dios por su pueblo

Pre-Coro:

G                      D/F#
Toda la creación se levanta
Em7                        C
Y delante de su trono proclama
   G           D          C
q grande y bueno es Dios

Coro:

                 G      D/F#             Em7     C
//Tu pueblo dice gracias, tu pueblo dice gracias,
       G                D
porque grandes cosas ha hecho Dios
         C
por su pueblo.//


Una recomendacion agan cadd9 para que se escuche mejor.
Suggest correction
Give kudos to tab author, rate the tab!
1 2 3 4 5
comments
print report bad tab
guest
You may want to rate the tab now too:
select rating
Wanna post a correction for this tab? Suggest correction