Oops, an error
Loading. Please wait.

Funambulism Tab

434 views 3 this week
no commentswrite comment
1 2 3 4 5
please rate
add to favorites
launch autoscroll
font size
0
reset
how to read this tab
guitar tuner
Tab Pro tools
  • play this tab
  • loop segment
  • change instrument
  • show fretboard
  • metronome
×
Best way to learn
"Funambulism"
Autoscroll
slow
fast
+/-
esc
set tempo
stop
Difficulty
intermediate
*************************************************************************
*           Jacobs Dream - Funumbalism                                  *
*           http://www.jacobsdream.us/                                  *
*           Album: Jacobs Dream                                         *
*************************************************************************

Transcribed by: Oliver Nemitz (September 2005)
E-Mail: Tabs@OliverNemitz.de
Homepage: www.OliverNemitz.de

This file represents the authors own work.
Please e-mail me if you find any mistakes!

Although there might be better songs of JD, this one has a really cool 
solo, that's why I tabbed it (at least I tried...). The song is more or
less complete, but I'm sure there are some mistakes in it. If you find some, 
feel free to send them to me!
-------------------------------------------------------------------------

Intro:

E||-------------------------|------------------------|
B||-------------------------|------------------------|
G||*------2-----------------|------2-----------------|
D||*----3---3--5--3--2--3---|----3---3--5--3--2--3---|
A||---5---------------------|--5---------------------|
E||-------------------------|------------------------|

E|--------------------------|-------------------------||
B|--------------------------|-------------------------||
G|--------------------------|------------------------*||
D|----5--8--5--7--5---5-----|--8--5--7--5--8--5---5--*||
A|--6---------------6-------|-------------------6-----||
E|--------------------------|-------------------------||

      Riff A
E||--------------------------||
B||--------------------------||
G||*---7--5--7--------------*||
D||*---5--3--5--------------*||    (repeat several times)
A||----5--3--5--5--8--7--5---||
E||--------------------------||

      Verse    (repeat figure several times)
E||--------------------------|------------------------|
B||--------------------------|------------------------|
G||*---7--------7--------7---|------------------------|
D||*---7--------7--------7---|--8--------8--------8---|
A||----5--5-5-5-5--5-5-5-5---|--5--5-5-5-5--5-5-5-5---|
E||--------------------------|------------------------|

|--------------------------|---------------------------||
|--------------------------|---------------------------||
|----3--------3--------3---|--------------------------*||
|----3--------3--------3---|--8--------8--------8~~~--*||
|----1--1-1-1-1--1-1-1-1---|--7--7-7-7-7--7-7-7--------||
|--------------------------|---------------------------||


      Intermezzo       A#/D#
E||------------------|------------------||
B||------------------|------------------||   I think there are two guitars
G||*--7--------------|--8--8--7----7---*||   playing A# and D# at the same
D||*--7--------------|--8-------10-----*||   time. But you can approximate
A||---5--5--7--8--5--|--6---------------||   this with the noted chord.
E||------------------|--6---------------||

Verse

[Part B]                                                   ... so bring ...
E|-------|--------|--------|-------|--------------|-------|-------------------|
B|-------|--------|--------|-------|--------------|-------|-------------------|
G|--7----|---3----|---3----|---3---|----Verse-----|---7---|----Riff A---------|
D|--5----|---3----|---3----|---3---|--------------|---5---|-------------------|
A|--5----|---1----|---1----|---1---|--------------|---5---|-------------------|
E|-------|--------|--------|-------|--------------|-------|-------------------|

it was hard to walk away...     1) + 3) together with Riff A
E||------------|-----------||------------------------|-------------------------|
B||------------|-----------||------------------------|-------------------------|
G||*--5~~~-----|----3-----*||------________--_____---|------________--_____----|
D||*--3~~~-----|----3-----*||--12--12-12-12--12-12---|--14--14-14-14--14-14----|
A||---3~~~-----|----1------||------------------------|-------------------------|
E||------------|-----------||------------------------|-------------------------|

E|------------------------|------------------||
B|------------------------|------------------||
G|------________--_____---|------________----||
D|--15--15-15-15--15-15---|--17--17-17-17----||
A|------------------------|------------------||
E|------------------------|------------------||

    2)
E||----------------------|----------------------|--------------|---------------||
B||----------------------|----------------------|--------------|---------------||
G||-----________--_____--|-----________--_____--|-----________-|-----________--||
D||-12--12-12-12--12-12--|-14--14-14-14--14-14--|-10--10-10-10-|-12--12-12-12--||
A||----------------------|----------------------|--------------|---------------||
E||----------------------|----------------------|--------------|---------------||


Solo:
-----

E|-------------------|-------------------|---------------------|
B|-------1~~---------|-------------------|--------------1~~----|
G|------------3~~----|--2----------------|--------2--3---------|
D|---3~~-------------|----5--3--2--3~~---|--3--5---------------|
A|-------------------|-------------------|---------------------|
E|-------------------|-------------------|---------------------|

E|-----------------------|-------------------|
B|-----------1-----------|-------------------|
G|--------------3--------|--2----------------|
D|--3--2--3--------------|-----5-------------|
A|-----------------------|--------3--2--3----|
E|-----------------------|-------------------|

E||------------8~~-------|------------------------------8~~----|
B||-----------------11~~-|--10--------------------10-11--------|
G||--10-9-10~~-----------|-----12-10-9-10~~-10-12--------------|
D||----------------------|-------------------------------------|
A||----------------------|-------------------------------------|
E||----------------------|-------------------------------------|

E---------------8~~-------------------------|
B-------------------11~~-10-----------------|
G----10-9-10~~--------------12-10-9-10~~----| 
D-------------------------------------------|
A-------------------------------------------|
E-------------------------------------------|

E||---------------------------||
B||--------10-----------------||
G||*----10----10-12-10-9-10--*||  4x
D||*-12----------------------*||
A||---------------------------||
E||---------------------------||

        Guitar 1                  Guitar 2
E||-----|--------------------||----------------------||
B||-----|--------------------||--13---11-10----10----||
G||*----|--10---9-----------*||-------------12------*||
D||*-12-|---------12-10-10--*||---------------------*||  4x
A||-----|--------------------||----------------------||
E||-----|--------------------||----------------------||
            
        Guitar 1                         Guitar 2
E||-----------------------------||-------------------------||
B||---------10------------------||---13---11-10----10------||
G||*-----10----10-12-10-9-10---*||--------------12--------*||   4x
D||*--12-----------------------*||------------------------*||
A||-----------------------------||-------------------------||
E||-----------------------------||-------------------------||

        Guitar 1                Guitar 2
E||----------------------||-----------------------||
B||----------------------||--15---13--------------||
G||----------------------||-----------15-14-15----||
D||---12---10------------||-----------------------||
A||-----------13-12-13---||-----------------------||
E||----------------------||-----------------------||

E||---17---------------------17--17-------||
B||------18--15~~----15--18----------15---||
G||*--------------14---------------------*||
D||*-------------------------------------*||
A||---------------------------------------||
E||---------------------------------------||

not sure about this part, but it's more or less similar...
E||-----------------------------------------------------------------|
B||-----------------------------------------------------------------|
G||--10--10-10--12--12-12--14--14-14--15--15-15---------------------|
D||-----------------------------------------------------------------|
A||-----------------------------------------------------------------|
E||-----------------------------------------------------------------|
                 
                 4x                             4x
E||-----------10--13--10---------||-----------15--18--15---------||
B||--------10------------10------||--------15------------15------||
G||*----10------------------10--*||*----15------------------15--*|| 
D||*-12-------------------------*||*-17-------------------------*||
A||------------------------------||------------------------------||
E||------------------------------||------------------------------||

E||--15-18-17-18-13-18-17-18--||--------------------------||
B||---------------------------||-15-18-17-18-13-18-17-18--||
G||*-------------------------*||-------------------------*|| 
D||*-------------------------*||-------------------------*||
A||---------------------------||--------------------------||
E||---------------------------||--------------------------||

E||----17-17-18-15-17-----15------------------------|
B||---------------------18-------17-18-17-15-17-----|
G||-------------------------------------------------|
D||-------------------------------------------------|
A||-------------------------------------------------|
E||-------------------------------------------------|

again not really sure about this part...
E||----------------------------------------------|
B||------15--------------------------------------|
G||---17------15-17---14-15---14-15-14-12-14-----|
D||----------------------------------------------|
A||----------------------------------------------|
E||----------------------------------------------|
  
tabbing:
E||--------------|--------------|--------------|--------------|-------------|
B||--------------|--------------|--------------|--------------|-12b(14)~~~--|
G||----h---p-----|----h---p-----|----h---p-----|----h---p-----|-12b(14)~~~--|
D||--5---3---2---|--7---5---3---|--9---7---5---|-10---9---7---|-------------|
A||--------------|--------------|--------------|--------------|-------------|
E||--------------|--------------|--------------|--------------|-------------|


then play Riff A several times and Part B and end up with

E||-----------------------|
B||-----------------------|
G||----7---5---7----------|
D||----5---3---5----------|
A||----5---3---5----------|
E||-----------------------|


| /  slide up
| \  slide down
| h  hammer-on
| p  pull-off
| b  bend
| ~  vibrato
| +  harmonic
| x  Mute note
===============================================================================

comments
We did not receive enough feedback on this tab! Please rate:
print report bad tab
1 2 3 4 5
I want to post or [tab]
guest
You may want to rate the tab now too:
select rating
Please do not post tabs as comments. Select "correction" instead!