Oops, an error
Loading. Please wait.

Can Can Bass Tab

version 1
version 1

Whole song

Interactive

1,835 views 1 this week
no commentswrite comment
1 2 3 4 5
please rate
add to favorites
launch autoscroll
font size
0
reset
guitar tuner
Autoscroll
slow
fast
+/-
esc
set tempo
stop
Help us to improve Ultimate-Guitar.com Take our survey!
×
Difficulty
intermediate
|2---|----|----| X4
|--3-|0---|----|
|----|--3-|----|
|----|----|----|

|----| X4
|----|
|3333| Play 4 quarter notes
|----|

|----| X4
|3333| Play 4 quarter notes
|----|
|----|
& Is used for a rest
|----|----|----|----|----|----| X2
|--3&|3---|--3&|----|3&3&|3---|
|1&--|----|1&--|1---|----|----|
|----|----|----|----|----|----|

|----|----|----| X1
|--3&|--3&|----|
|1&--|1&--|1---|
|----|----|----|

|----|----|-0---|----|----|-3-2-0|-----|----| x1
|-1-0|3-3-|3-1-0|----|-1-0|------|3-1-0|----|
|3---|----|-----|3-3-|3---|1-----|-----|3-1-|
|----|----|-----|----|----|------|-----|----|

|----|----|-0---|----|----| x1
|-1-0|3-3-|3-1-0|----|----|
|3---|----|-----|3-3-|3---|
|----|----|-----|----|----|

|3-3-|1-1-|0---| x2
|----|----|----|    Play half notes. and the last nots is a whole
|----|----|----|
|----|----|----|

|----| x4
|--3-|
|1---|
|----|


|----|----|----|
|----|----|----|
|1&--|1-1-|1&--|
|----|----|----|
comments
We did not receive enough feedback on this tab! Please rate:
print report bad tab
1 2 3 4 5
I want to post or [tab]
guest
You may want to rate the tab now too:
select rating
Please do not post tabs as comments. Select "correction" instead!