Oops, an error
Loading. Please wait.

Viernes Por La Noche Bass

version 1
version 1

Whole song

by Jade
31 views 3 this week
no commentswrite comment
1 2 3 4 5
3 more votes to show rating
add to favorites
launch autoscroll
font size
0
reset
guitar tuner
×
Best way to learn
"Viernes Por La Noche"
Autoscroll
slow
fast
+/-
esc
set tempo
stop
Intro
Verso ( x 2 )
|---------------------------------|
|---------------------------------|
|---2---2---2---2---3---3---3---3-|
|-3---3---3---3---5---5---5---5---|

|-----------------------------------------|
|-----------------------------------------|
|---2---2---2---2---3---3-3-3-3-3-5-5-5-5-|
|-3---3---3---3---5---5-------------------|

Coro ( x 2 )
que manera de ...
|-------------------------------------------------|
|-------------------------------------------------|
|---2-5---2-5---2-5---2-5---4-7---4-7---4-7---4-7-|
|-3-----3-----3-----3-----5-----5-----5-----5-----|

|---------------------------------------|
|---2-5---2-5---4-7---4-7---------------|
|-3-----3-----5-----5-------2-5---2-5---|
|-------------------------3-----3-----3-|

Verso ( x 2 )
|---------------------------------|
|---------------------------------|
|---2---2---2---2---3---3---3---3-|
|-3---3---3---3---5---5---5---5---|

|-----------------------------------------|
|-----------------------------------------|
|---2---2---2---2---3---3-3-3-3-3-5-5-5-5-|
|-3---3---3---3---5---5-------------------|

Coro ( x 2 )
que manera de ...
|-------------------------------------------------|
|-------------------------------------------------|
|---2-5---2-5---2-5---2-5---4-7---4-7---4-7---4-7-|
|-3-----3-----3-----3-----5-----5-----5-----5-----|

|---------------------------------------|
|---2-5---2-5---4-7---4-7---------------|
|-3-----3-----5-----5-------2-5---2-5---|
|-------------------------3-----3-----3-|

Verso ( x 2 )
|---------------------------------|
|---------------------------------|
|---2---2---2---2---3---3---3---3-|
|-3---3---3---3---5---5---5---5---|

|-----------------------------------------|
|-----------------------------------------|
|---2---2---2---2---3---3-3-3-3-3-5-5-5-5-|
|-3---3---3---3---5---5-------------------|

|-3-| FIN

Un saludo a la linda gente Potosina VIVA POTOSI VIVA BOLIVIA
Suggest correction
Give kudos to tab author, rate the tab!
1 2 3 4 5
comments
print report bad tab
guest
You may want to rate the tab now too:
select rating
Wanna post a correction for this tab? Suggest correction