Oops, an error
Loading. Please wait.

Viernes Por La Noche Bass

version 2
version 2

Whole song

by Jade
19 views 1 this week
no commentswrite comment
1 2 3 4 5
3 more votes to show rating
add to favorites
×
Save as Personal and add changes to this tab that will be seen only by you. Learn more ›
launch autoscroll
font size
0
reset
guitar tuner
Autoscroll
slow
fast
+/-
esc
set tempo
stop
Solo tienen que ubicarse bien en los silencios
en especial el intro
Intro
E|--3-3-----3-|-33-3-----3-|-55-5-------|-55-5-----5--|
A|-----h2-2---|-----h2-2---|-----h3-3-5-|-----h3-5----|
D|------------|------------|------------|-------------|
G|------------|------------|------------|-------------|

E|--33-3-----3-|-33-3-----3-|-55-5035-|-----3--|--5-5-5-5--|
A|------h2-2---|-----h2-2---|---------|-3-3--3-|-5-5-5-5---|
D|-------------|------------|---------|--------|-----------|
G|-------------|------------|---------|--------|-----------|

Viernes por la noche
E|--3-------|-3-------|-5-5h0035-|-5-5h00335-|
A|----2-3-2-|---2-3-2-|----------|-----------|
D|----------|---------|----------|-----------|
G|----------|---------|----------|-----------|

bordando este deseo
E|--3-------|-3-------|-5-5h0035-|-------|--5-5------|
A|----2-3-2-|---2-3-2-|----------|-3-303-|-5-5-------|
D|----------|---------|----------|-------|-----------|
G|----------|---------|----------|-------|-----7/14--|

Saliendo del boliche
E|--3-------|-3-------|-5-5h0035-|-5-5h0035-|
A|----2-3-2-|---2-3-2-|----------|----------|
D|----------|---------|----------|----------|
G|----------|---------|----------|----------|

me encuentro en un
E|--3-------|-3-------|-5-5h0035-|-------5-5---|
A|----2-3-2-|---2-3-2-|----------|-3-3035-5-5--|
D|----------|---------|----------|-------------|
G|----------|---------|----------|-------------|

Que manera de
            x4
E|------|-3-----|---0-|---00--|---0-|---0--|
A|--5/0-|---2-5-|-0---|-0---0-|-0---|-0--0-|
D|------|-------|-----|-------|-----|------|
G|------|-------|-----|-------|-----|------|

Contigo alucinar
     x2       x2      x2
E|--------|-------|-------|----|
A|--3-----|-5-----|-------|----|
D|----2-5-|---4-7-|-5-----|-5--|
G|--------|-------|---4-7-|----|

Que manera de
     x4
E|--3-----|---0-|---00--|---0-|---0--|
A|----2-5-|-0---|-0---0-|-0---|-0--0-|
D|--------|-----|-------|-----|------|
G|--------|-----|-------|-----|------|

Contigo alucinar
     x2       x2      x2
E|--------|-------|-------|----|
A|--3-----|-5-----|-------|----|
D|----2-5-|---4-7-|-5-----|-5--|
G|--------|-------|---4-7-|----|

3 de la mañana
E|--3-------|-3-------|-5-5h0035-|-5-5h00335-|
A|----2-3-2-|---2-3-2-|----------|-----------|
D|----------|---------|----------|-----------|
G|----------|---------|----------|-----------|

por mas que lo deseo
E|--3-------|-3-------|-5-5h0035-|-------|--5-5---------|
A|----2-3-2-|---2-3-2-|----------|-3-303-|-5-5-5-33322--|
D|----------|---------|----------|-------|--------------|
G|----------|---------|----------|-------|--------------|

Me acerco a duras
E|--3-------|-3-------|-5-5h0035-|-5-5h0035--|
A|----2-3-2-|---2-3-2-|----------|-----------|
D|----------|---------|----------|-----------|
G|----------|---------|----------|-----------|

ella solo voltea
E|--3-------|-3-------|-5-5h0035-|-------5-5---|
A|----2-3-2-|---2-3-2-|----------|-3-3035-5-5--|
D|----------|---------|----------|-------------|
G|----------|---------|----------|-------------|

Que manera de
            x4
E|------|-3-----|---0-|---00--|---0-|---0--|
A|--5/0-|---2-5-|-0---|-0---0-|-0---|-0--0-|
D|------|-------|-----|-------|-----|------|
G|------|-------|-----|-------|-----|------|

Contigo alucinar
     x2       x2      x2
E|--------|-------|-------|----|
A|--3-----|-5-----|-------|----|
D|----2-5-|---4-7-|-5-----|-5--|
G|--------|-------|---4-7-|----|

Que manera de
     x4
E|--3-----|---0-|---00--|---0-|---0--|
A|----2-5-|-0---|-0---0-|-0---|-0--0-|
D|--------|-----|-------|-----|------|
G|--------|-----|-------|-----|------|

Contigo alucinar
     x2       x2      x2
E|--------|-------|-------|----|
A|--3-----|-5-----|-------|----|
D|----2-5-|---4-7-|-5-----|-5--|
G|--------|-------|---4-7-|----|

10 de la mañana
E|--3-------|-3-------|-5-5h0035-|-5-5h00335-|
A|----2-3-2-|---2-3-2-|----------|-----------|
D|----------|---------|----------|-----------|
G|----------|---------|----------|-----------|

por mas que hago el intento
E|--3-------|-3-------|-5-5h0035-|-------|--5-5-5-5--|
A|----2-3-2-|---2-3-2-|----------|-3-303-|-5-5-5-5---|
D|----------|---------|----------|-------|-----------|
G|----------|---------|----------|-------|-----------|

Intro
E|--3-3-------|-33-3-------|-55-5-------|-55-5-----5--|
A|-----h2-2-5-|-----h2-2-5-|-----h3-3-5-|-----h3-5----|
D|------------|------------|------------|-------------|
G|------------|------------|------------|-------------|

E|--33-3-------|-33-3-------|-55-5035-|-----3--|--5-5-5-5--|
A|------h2-2-5-|-----h2-2-5-|---------|-3-3--3-|-5-5-5-5---|
D|-------------|------------|---------|--------|-----------|
G|-------------|------------|---------|--------|-----------|

E|--3-3-------|-33-3-------|-55-5-------|-55-5-----5--|
A|-----h2-2-5-|-----h2-2-5-|-----h3-3-5-|-----h3-5----|
D|------------|------------|------------|-------------|
G|------------|------------|------------|-------------|

E|--33-3-------|-33-3-------|-55-5035-|-----3--|--5-5--|-3--|
A|------h2-2-5-|-----h2-2-5-|---------|-3-3--3-|-5-5-5-|----|
D|-------------|------------|---------|--------|-------|----|
G|-------------|------------|---------|--------|-------|----|

atte. miauricio gatolar
Suggest correction
Give kudos to tab author, rate the tab!
1 2 3 4 5
comments
print report bad tab
guest
You may want to rate the tab now too:
select rating
Wanna post a correction for this tab? Suggest correction