Oops, an error
Loading. Please wait.

Viernes Por La Noche Tab

version 2
version 2

Whole song

by Jade
31 views 1 this week
no commentswrite comment
1 2 3 4 5
3 more votes to show rating
add to favorites
launch autoscroll
font size
0
reset
how to read this tab
guitar tuner
Autoscroll
slow
fast
+/-
esc
set tempo
stop
Help us to improve Ultimate-Guitar.com Take our survey!
×
Hola insisto en que esta version esta mejor que la que ya hay!!!!

Notas:
   SOL M   LA m    DO M    RE M
E |--3-------5-------8------10----| 
B |--3-------5-------8------10----|
G |--4-------5-------9------11----|
D |--5-------7------10------12----|
A |--5-------7------10------12----|
E |--3-------5-------8------10----|

Intro: SolM-Lam-SolM-Lam-DoM-ReM

SOL 
Viernes en la noche y nada puede ir mal
     LAm
ya viví esta semana como un inmortal
   SOL 
guardando este deseo como un animal
  LAm               DO                     RE 
esto va a suceder porque al fin voy a beber

 Arreglo 2ª Estrofa-1ªGuitarra (2ªGuitarra continua rasgueando)

  SOL         LAm             SOL         LAm          DO     RE 
E |-3--------------5-------5----3-------------5------8-x-8----x-10-8/10~---| 
B |-3--------------5-------5----3-------------5------8-x-8----x-10-8/10~---|
G |-4-5-4-0--------5-------5----4-5-5-4-0-----5------9-x-9----x------------|
D |-5---------------------------5-----------------------------x------------|
A |-5---------------------------5-----------------------------x------------|
E |-3----------5-3---5-5-3------3----------5----5-3-----------x------------|

  SOL 
Saliendo del boliche son las doce y diez
   LAm
no sigo mi cabeza solo veo mis pies
      SOL 
me encuentro en un lugar que sabe dios dónde es
   LAm               DO                       RE  
ya todo me iba mal cuando al fin la vi llegar


Coro:
                   SOL 
(Qué manera de bailar... 
                 LAm
qué manera de besar...
                   DO 
con tu cuerpo despertar
              RE                SOL 
contigo alucinar y volver a soñar)    Bis()


 SOL 
Tres de la mañana y al fin me puedo parar
  LAm
agarro mi cabeza pa' que no vaya a dudar
     SOL 
por más que lo deseo no lo puedo evitar
      LAm                   DO                 RE 
sus piernas son de fuego y su mirada de glacial

Arreglo 4ª Estrofa-1ªGuitarra (2ªGuitarra continua rasgueando)

  SOL         LAm             SOL         LAm          DO     RE 
E |-3--------------5-------5----3-------------5------8-x-8----x-10-8/10~---| 
B |-3--------------5-------5----3-------------5------8-x-8----x-10-8/10~---|
G |-4-5-4-0--------5-------5----4-5-5-4-0-----5------9-x-9----x------------|
D |-5---------------------------5-----------------------------x------------|
A |-5---------------------------5-----------------------------x------------|
E |-3----------5-3---5-5-3------3----------5----5-3-----------x------------|


     SOL       
Me acerco a duras penas sin saber qué hablar
    LAm
disculpe señorita quisiera bailar
   SOL 
ella solo voltea y se me pone a mirar
    LAm                 DO                      RE 
cuando tomo mi mano y nos fuimos de aquel lugar

Coro:
                   SOL 
(Qué manera de bailar... 
                 LAm
qué manera de besar...
                   DO 
con tu cuerpo despertar
              RE                 SOL 
contigo alucinar y volver a soñar)       Bis()


Arreglo final (Entra en 2º SolM 1ªGuitarra) (2ªGuitarra continua rasgueando)

   SOL        LAm     DO        RE  
E |-3----------5-------8-x--8---10-x-10-x--------| 
B |-3----------5-------8-x--8---10-x-10-x--------|
G |-4--5-4-5-4-5-------9-x--9---11-x-11-x-11-----|
D |-5----------7------10-x-10---12-x-12-x----12--|
A |-5----------7------10-x-10---12-x-12-x--------|
E |-3----------5-------8-x--8---10-x-10-x--------|

 SOL          
Diez de la mañana en plena plaza principal
    LAm
no tengo ni reloj ni dinero ni mi collar
     SOL 
por más que hago un intento no me puedo acordar
  LAm                 DO                      RE 
solo tomó mi mano y nos fuimos de aquel lugar


Solo-1ªGuitarra  2ªGuitarra sigue con los acordes: SolM-Lam-SolM-Lam-DoM-ReM

    SOL                       LAm           SOL                      LAm
E |--------------------------------7-8-10-12---------------------------| 
B |-8-7-5-7-5----8-7-5-7-5-------/5-7-8--8---8-7-5-7-5---8-7-5-7-5-----|
G |-----------7------------7-7/9-----------------------7-----------7/9-|
D |--------------------------------------------------------------------|
A |--------------------------------------------------------------------|
E |--------------------------------------------------------------------|
   DO         RE                               SOL 
E |---8---8-8----10-----10----8-7-----------------12--10----12--10-----| 
B |-/8-8-8----/10--10-10---10-----10-8-7-------/12--12---/12--12-------|
G |--------------------------------------9-7---------------------------|
D |------------------------------------------9-------------------------|
A |--------------------------------------------------------------------|
E |--------------------------------------------------------------------|
          LAm           SOL                       LAm    DO 
E |------------------------12--10----12--10----------------------------| 
B |-/5~-5-5/10~~--8p7h8-/12--12---/12--12---/5~-5-5/10~--7h8p7--7h8p7--|
G |-----------------------------------------------------9------9-------|
D |--------------------------------------------------------------------|
A |--------------------------------------------------------------------|
E |--------------------------------------------------------------------|
                     REM(para)             SOL 
E |---------------------------8-7--------------------------------------| 
B |--7h8p7-7h8p7-7-8/10~~---------8------------------------------------|
G |-9-----9-----9-------------------7/9-7-5-4--------------------------|
D |-------------------------------------------5~~----------------------|
A |--------------------------------------------------------------------|
E |--------------------------------------------------------------------|
Suggest correction
Give kudos to tab author, rate the tab!
1 2 3 4 5
comments
print report bad tab
guest
You may want to rate the tab now too:
select rating
Wanna post a correction for this tab? Suggest correction