Oops, an error
Loading. Please wait.

My Fathers World Chords

version 2
version 2

Whole song

19 views 1 this week
no commentswrite comment
1 2 3 4 5
3 more votes to show rating
add to favorites
launch autoscroll
font size
0
reset
transpose
0
reset
simplify chords
display chords
guitar tuner
Autoscroll
slow
fast
+/-
esc
set tempo
stop
Help us to improve Ultimate-Guitar.com Take our survey!
×
Author
Difficulty
Capo
intermediate
4th fret
[Intro]
e|----------------------------------------|
B|------1--------1-----------1---------1--|
G|---2--------0---------------------------|
D|3--------2--------------2---------0-----| x2
A|---------------------3---------2--------|
E|----------------------------------------|

e|------3--------3-----------3---------3-----------3--------3------------3---3--|
B|-----------------------------------------------------------------------0h1p0--|
G|---2--------0---------------------------------2--------0------------0---------|
D|3--------2--------------2---------0--------3--------2------------0------------|
A|---------------------3---------2----------------------------------------------|
E|--------------------------------------------------------------3---------------|
(This basic picking pattern continues throughout the song)

[Verse 1]
     C     G        C
This is my Father's world
    Fmaj7 C         G
And to my listening ears
    C      Em        Am       Fmaj7
All nature sings and round me rings
    C     G      Fmaj7
The music of the spheres

[Instrumental]
e|---------------------------------------------------------------------3---3--|
B|------1--------1-----------1---------1----------1--------1-----------0h1p0--|
G|---2--------0--------------------------------2--------0-----------0---------|
D|3--------2--------------2---------0-------3--------2-----------0------------|
A|---------------------3---------2--------------------------------------------|
E|------------------------------------------------------------3---------------|

[Verse 2]
     C     Em7      Am    Am/G
This is my Father's world
  Fmaj7   C      G
I rest me in the thought
   C         Em        Am        Fmaj7
Of rocks, of trees, of skies and seas
    C        G       Fmaj7
His hand the wonders wrought

[Instrumental]
e|---------------------------------------------------------------------3---3--|
B|------1--------1-----------1---------1----------1--------1-----------0h1p0--|
G|---2--------0--------------------------------2--------0-----------0---------|
D|3--------2--------------2---------0-------3--------2-----------0------------|
A|---------------------3---------2--------------------------------------------|
E|------------------------------------------------------------3---------------|

[Verse 3]
     C     Em7      Am    Am/G
This is my Father's world
        Fmaj7  C        G
Oh, and let me never forget
     C          Em          Am       Fmaj7
That though the wrong seems often so strong
    C      G     Fmaj7
God is the ruler yet

[Instrumental]
e|---------------------------------------------------------------------3---3--|
B|------1--------1-----------1---------1----------1--------1-----------0h1p0--|
G|---2--------0--------------------------------2--------0-----------0---------|
D|3--------2--------------2---------0-------3--------2-----------0------------|
A|---------------------3---------2--------------------------------------------|
E|------------------------------------------------------------3---------------|

[Verse 3]
     C     Em7      Am    Am/G
This is my Father's world
       Fmaj7     C    G
Oh, the battle is not done
     C           Em          Am   Fmaj7
It's Jesus who died will be satisfied
    C         G              C
And earth and heaven will be one


************************************

| h  Hammer-on
| p  Pull-off

************************************
Suggest correction
Give kudos to tab author, rate the tab!
1 2 3 4 5
comments
print report bad tab
guest
You may want to rate the tab now too:
select rating
Wanna post a correction for this tab? Suggest correction