Oops, an error
Loading. Please wait.

Todo Mi Amor Tab

360 views 3 this week
no commentswrite comment
1 2 3 4 5
3 more votes to show rating
add to favorites
launch autoscroll
font size
0
reset
how to read this tab
guitar tuner
×
Best way to learn
"Todo Mi Amor"
Autoscroll
slow
fast
+/-
esc
set tempo
stop
                                  todo ligado     todo ligado
e-----12^14-12^14-14(16)\14^12-14-(12 14 12)-11-12-(11 12 11)------------------------------------------------------------------------------------------
b--------------------------------------------------------------14-(12Trino14)--9-10-12--(9 10 9)---------------------------------chillido--------------
g------------------------------------------------------------------------------------------------9~-------------9-11-9-11(13)\11-11(13)\11-9-----------
d----------------------------------------------------------------------------------------------------arrastre11------------------------------9---------
a------------------------------------------------------------------------------------------------------------------------------------------------------
E------------------------------------------------------------------------------------------------------------------------------------------------------


19(20)-19(20)\19-16-17-19-16-----------------------------19(21)-19(21)-16-19--19(21)\19-17-19(21)\19-17-19(21)--19(21)-19(21)-19(21)--16--------------]
-----------------------------17~17~-14-16-15(17)-17~17~-----------------------------------------------------------------------------------19(21)~-----]
------------------------------------------------------------------------------------------------------------------------------------------------------]
------------------------------------------------------------------------------------------------------------------------------------------------------]
------------------------------------------------------------------------------------------------------------------------------------------------------]
------------------------------------------------------------------------------------------------------------------------------------------------------]


significados:

1)^ ligado
2)un N° entre parentesis es que la cuerda esta estirada
 por ej: 12(14)  el 12 estirado al 14
3)\ despues de estirarla, la cuerda baja a su posición
4)~ vibrato


Bueno soy claudio, tengo 15 años y soy de Argentina (Varela. Espero que les guste
y por favor manden mas transcripciones de juan Antonio Ferreyra que es un capo y
una muy buena persona. Cualquier cosa les dejo mi mail: missapatosdeblues@
                                                                                      18 de enero del 2005
Suggest correction
Give kudos to tab author, rate the tab!
1 2 3 4 5
comments
print report bad tab
guest
You may want to rate the tab now too:
select rating
Wanna post a correction for this tab? Suggest correction