Oops, an error
Loading. Please wait.

Going Down tab

1,380 views 1 this week
1 commentread comment
1 2 3 4 5
x 3
add to favorites
×
Save as Personal and add changes to this tab that will be seen only by you. Learn more ›
×
You can save this tab as Personal to edit and correct it or add notes. All changes will be seen only by you. Learn more »
launch autoscroll
font size
0
reset
how to read this tab
guitar tuner
edit
Autoscroll
slow
fast
+/-
esc
set tempo
stop
Author
Difficulty
Jaga Jazzist - Going Down

Not an unsigned band, but UG didn't have it in the database at the time I submitted it.

1)
e|-----------------------------------------------------------|
B|-----3---1~----------0h1-------3--------3--1------0------0-|
G|---2---------0~----0-----0----------0h2------0----0------0-| x2
D|-0-----3-------------------2h3----1------------------------|
A|-----------------3-----------------------------------------|
E|--------------------------------------------------3------3-|

   Dm    Fmaj7     Cmaj             Asus4/D#        Gmaj

2)
e|------------------------------------------------------------|
B|-----3-------1~------0h1-------3--------3--1------0------0--|
G|---2-----(0)-------0-----0----------0h2------0----0------0--| 3rd time.
D|-0-----3-------------------2h3----1-------------------------|
A|-----------------3------------------------------------------|
E|--------------------------------------------------3------3--|

   Dm    Fmaj7     Cmaj             Asus4/D#        Gmaj

Then play 1) throughout the rest of the song. Pause at the sax / synth duo.

That's about it!

            
            
Suggest correction
Creating personal tab
Creating personal tab
You can edit any tab online and save it as your Personal.

You can edit, replace or remove any tab part or add personal notes – all changes will be seen only by you.

Personal tabs can be accessed anytime from any device, even offline.
Learn more »
Give kudos to tab author, rate the tab!
1 2 3 4 5
comments
print report bad tab
1 comment total.
0 reply
tchoobaio 10 Jun 02, 2015 05:03 AM

e|-----------------------------------------------------------|
B|-----3---1~----------0h1-------3--------3--1------0------0-|
G|---2---------0~----0-----2----------0h2------0----0------0-| x2
D|-0-----3-------------------2h3----1------------------------|
A|-----------------3-----------------------------------------|
E|--------------------------------------------------3------3-|

guest
You may want to rate the tab now too:
select rating
Wanna post a correction for this tab? Suggest correction