Oops, an error
Loading. Please wait.

Ayer Me Dijo Un Ave bass

version 1
version 1

Whole song

  • JAGUARES Bajo el azul de tu misterio Ayer me dijo un ave 1992 Bass Tab.

Interactive

73 views 1 this week
no commentswrite comment
1 2 3 4 5
3 more votes to show rating
add to favorites
×
Save as Personal and add changes to this tab that will be seen only by you. Learn more ›
×
You can save this tab as Personal to edit and correct it or add notes. All changes will be seen only by you. Learn more »
launch autoscroll
font size
0
reset
guitar tuner
edit
Autoscroll
slow
fast
+/-
esc
set tempo
stop
Author
About this tab version
JAGUARES Bajo el azul de tu misterio Ayer me dijo un ave 1992 Bass Tab. Was this info helpful? Yes No
Ayer me dijo un ave.

Artista: JAGUARES
Album: Bajo el azul de tu misterio   
Año: 1999

Contacto: Jesusprudenciano@hotmail.com


Entra después del primer tiempo
G|--------9-7--------------|---------------------------|
D|--5/_9-----9-7-----------|º-------------------------º| 
A|----------------9-7------|---------------------------|
E|---------------------8\\-|º-------------------------º|
B|-------------------------|-2--2-2--2--2-2-2-2-0------|
                                     Ayer me dijo un ave...

G|-------------------------------------------------------------------------------------|
D|-0h2-2-2-2-0-------------------------------------------------------------------------|
A|---------------2---------------------------------------------------------------------|
E|-----------------2-0------------------------------------------------------ 4\0-------|
B|---------------------2--2-2--2--2-2-4-5--5--4--4--2--2-2--2--2-2-2-2-----------------|

G|------------------------------------------------------------------|
D|------------------------------------------------------------------|
A|--------------------------------------------------4h6-4-----------|
E|---------------------------------------------------------6-4-5----|
B|-2--2-2--2--(2)2-4-5--5--4--4--2--2-2--2--2\4---------------------|
      Que saque el aire de mis ojos

G||-----------------------------------------------------------------------------|
D||-----------------------------------------------------------------------------|
A||---------------6--6--6-9-6-7-9-6p5--------------------6--6-6-9-6-6/7\6\4-----|
E||--5----5--5--5-----------------------5--5---5----5--5------------------------|
B||-----5----------------------------------------5------------------------------|
                                            para que nadie te haga daño..

G|---------------------------------------------------------|
D|---------------------------------------------------------|
A|---------------------------------------------------------|
E|--5--5---5--5--5-7--7------------------------------------|
B|--------5---------------7\\0-----------------------------|

G|--------------------------------------------------------------------|
D|-------------------------------0h(2)0-------------------------------|
A|---------------------------------------2--0-------------------------|
E|-2--2-2--x--2-2-2-2-0--2-2---------------2--0-----------------------|
B|------------------------------------------------0-2--2-2--(2)2--2-2-|

G|-------------------------------------------------------------------------|
D|-------------------------------------------------------------------------|
A|-------------------------------------------------------------------------|
E|---------------------------------------------5--2------------------------|
B|-4-5--5--4--4-4-4-4-4--2--2-2--2--2-2-2-----2--2--2--2--2-2-4-5--5--4--4-|

G|----------------------------------------------------------------------|
D|----------------------------------------------------------------------|
A|---------------------------------------------6--6--6-9-9-9--7-9-6\3---|
E|-----------------------6-4-5--5----5--5---5---------------------------|
B|-2--2-2--2--2-2h4-2------------5--------------------------------------|

G|-------------------------------------------------------------------------|
D|--------------------------------4----------------------------------------|
A|-----------------4h6-4h6--4-6-6-4-3-5-4-2\-------------------------------|
E|-5--5---5--5--5--------------------------------5---5--5--5-7--7----------|
B|-------5-------------------------------------------5----------------0----|
                                                                  
G|--------------------------------------------------------------------|
D|--------------------------------------------------------------------|
A|----------------------------------------------------5-3------2-3-4--|
E|---------------------------------------------------5----5-3---------|
B|-0-2-3-2-0-2--2-2--2--2-2-2-2-0--2--2--2-5--3---------5-------------|
  -
Acompañando el solo del vampiro
G|---------------------------------------------------------|
D|-----------------------------------------------------2\--|
A|-4-4--4--4-4-4-6-7--7--6--6--4--4-4--4-4-2-2-------------|
E|--------------------------------------------------4-4----|
B|---------------------------------------------------------|
                                                                              Fin del solo
G|-----------------------------------------------------------|
D|----------------------9-------------------------------2----|
A|-4--4-4-4--4-4-6-7-7-7--6-13-7-7-6-7-4--4-4-4-4-4----------|
E|------------------------------------------7-------4-----4--|
B|-----------------------------------------------------------|

Que saque el aire de mis ojos...
G|---------------------------------------------------------------------|
D|---------------------------------------------------------------------|
A|------------------6--6-9-9-9-6-7-6-4-----------------6--6-9--6-7-6\3-|
E|-5--5----5--5--5-----------------------5--5---5--5--5----------------|
B|-------5--------------------------------------5----------------------|
   
 Que sea un guerrero de sangre...
G||--------------------------------------------------------|
D||--------------------------------------------------------|
A||--------------------------------------------------------|
E||-5--5---5--5--5-5-5--5--7-----------------------4/9-7---|
B||-------5---------------------0-2--2-2--2-2-2--2---------|

Para que nadie te haga daño                           x3
G|---------------------------------------------------|
D|º-------------------------------------------------º|
A|------------2--2-2--1-2------------------2/4-2-----|
E|º-5--5-5--5---------------------------------------º|
B|-------------------------2--2-2--2-2-2--2----------|

Acompañando el segundo solo del vampiro
G|----------------------------------------6//15---|
D|------------------------------------------------|
A|--------------2-2--2--2-4-4-4--4-4-4------------|
E|-5-5--2-5--5----4----------5--5---5-------------|
B|------------------------------------------------|

G|--------------------------------------------------------|
D|-----------------------------------------------2-2-0----|
A|--------------2-2-2--4-4-4-2-4-2-0-2-4-4-2------2-------|
E|-5-5--2-5--5----4-----------------------------------5---|
B|--------------------------------------------------------|

G|--------------------------------------------------------|
D|---------------------------------------------------2\---|
A|---------2--2-2--2-4--4-4--4-4-4-4--2---------2-2-2-----|
E|-5-5--5----------------------------------5--5-5---------|
B|--------------------------------------------------------|

G|--------------------------------------------------------------6//16\-----|
D|-------------------------------------------------------------------------|
A|-4--4-4--2-4-4--4-4-2---------2--2-2--2-4--4-4--2-4-4--2-----------------|
E|-------------------------5--5-5------------------------------------------|
B|-------------------------------------------------------------------------|
   
FINAL                                                                                        
G|-----------------------------------------------------------------|
D|-------------------------------------------0-2-0-----------------|
A|--------------------------------------------------2-0------2-4_--|
E|-5--5-7-----------------------------------------------2-0--------|
B|----------2--2-2--x--2-2-2-2-0--2--2-2---------------------------|


************************************

| \    Slide down
| h    Hammer-on
| (n)  Ghost note
| p    Pull-off
| /    Slide up
| x    Dead note  

************************************

            
            
Suggest correction
Creating personal tab
Creating personal tab
You can edit any tab online and save it as your Personal.

You can edit, replace or remove any tab part or add personal notes – all changes will be seen only by you.

Personal tabs can be accessed anytime from any device, even offline.
Learn more »
Give kudos to tab author, rate the tab!
1 2 3 4 5
comments
print report bad tab
guest
You may want to rate the tab now too:
select rating
Wanna post a correction for this tab? Suggest correction