Oops, an error
Loading. Please wait.

Cuentame Tu Vida Tab

136 views 1 this week
no commentswrite comment
1 2 3 4 5
3 more votes to show rating
add to favorites
×
Save as Personal and add changes to this tab that will be seen only by you. Learn more ›
×
You can save this tab as Personal to edit and correct it or add notes. All changes will be seen only by you. Learn more »
save as personal
new!
launch autoscroll
font size
0
reset
how to read this tab
guitar tuner
Autoscroll
slow
fast
+/-
esc
set tempo
stop
EL DANNY   esta es la version de jaguares del disco 1 de bajo el azul
de tu misterio

esta transcripcion yo la sake y esta un 99.9.999.9% exacta tambien
les voy a mandar varias de caifanes y de el equilibrio de los
jaguares..

2-Cuentame tu vida
  Danny guitar x4                     | x2
----------------------------------|----------------------------------
----------------------------------|----------------------------------
-----6-----6-x-x------6---9-9-7-6-|/11v-9v-8-9v-6v-/11/7-/14v-12-11v
-7-9---7-9---x-x--7-9---7---------|---------------------------------
----------------------------------|----------------------------------
----------------------------------|----------------------------------

Diego guitar intro al fin de la 3er vez
PM---------------|                 |x4 debajo de el primer solo mio
-----------------|----------------|-------------------------------
-----------------|----------------|-----------------5?x2----------
-----------------|----------------|---6-6------6------------------
-7-7-7-7-7-7-7-7-7-7-7-7-7-7-7-7-7|-------6--7--------------------
-7-7-7-7-7-7-7-7-7-7-7-7-7-7-7-7-7|--4-----------7----------------
-5-5-5-5-5-5-5-5-5-5-5-5-5-5-5-5-5|----------5--------------------
danny
----------------------------------5---5---7---9---7---5----------
------5---4h5---------------------5----xx--xx---xx--xx-----------
------6---6---6--------6------6-----6----------------------------
----6---6-------6----6--------7----------------------------------
--4---------------4---------7---7--------------------------------
--------------------------5--------------------------------------
Desde un tiempo para aka  veo solo cristales
Diego
-------------------------------------------------------------
--5-5-5-5-5-5-5-5-5-5-5-5------------------------------------
--6-6-6-6-6-6-6-6-6-6-6-6------------------------------------
--6-6-6-6-6-6-6-6-6-6-6-6---7-7-7-7-7-7-7-7-7-7--------------
--4-4-4-4-4-4-4-4-4-4-4-4---7-7-7-7-7-7-7-7-7-7--------------
----------------------------5-5-5-5-5-5-5-5-5-5--------------
Desde un tiempo para aka    veo solo cristales
danny
--------------------------------------------------------------
--------------------------------------------------------------
--/11v-9-8-9-6v---/11-7-7--/14-12-11v---------------------------
--------------------------------------------------------------
--------------------------------------------------------------
--------------------------------------------------------------
diego
--------------------------------------------------------------
--------------------5----x2--------------------------------------
----6--6--------6------------------------------------------------
----------6--7--------------------------------------------------
---4--------------7---------------------------------------------
-------------5-------------------------------------------------
danny
----------------------------------5---5---7---9---7---5----------
------5---4h5---------------------5----xx--xx---xx--xx-----------
------6---6---6--------6------6-----6----------------------------
----6---6-------6----6--------7----------------------------------
--4---------------4---------7---7--------------------------------
--------------------------5--------------------------------------
Diego
----------------------------------5---5---7---9---7---5----------
------5---4h5---------------------5----xx--xx---xx--xx-----------
------6---6---6--------6------6-----6----------------------------
----6---6-------6----6--------7----------------------------------
--4---------------4---------7---7--------------------------------
--------------------------5--------------------------------------
danny
-----------------------------------------------------
-----------------------------------------------------
---------------------------13/11-11---13-/11-11------
-----------------------------------------------------
-----------------------------------------------------
-----------------------------------------------------

Coro (diego)
----------------------------------------------------- x2
-----------------------------------------------------
--7-7-7-7-7-7-7-7-7-7-7-7-7-7-9-9-9-9-9-9-9-9-9-9-9
--8-8-8-8-8-8-8-8-8-8-8-8-8-8-1010101010101010101010
--8-8-8-8-8-8-8-8-8-8-8-8-8-8-1010101010101010101010
--6-6-6-6-6-6-6-6-6-6-6-6-6-6-8-8-8-8-8-8-8-8-8-8-8-8
      Cuentame tu vida          cuentamela toda
--danny---------------------------------------------- x2
-----------------------------------------------------
--/5v--------------------------/7v-------------------
-----------------------------------------------------
-----------------------------------------------------
-----------------------------------------------------
Puente (diego
----------------------------------5---5---7---9---7---5--------x2
------5---4h5---------------------5----xx--xx---xx--xx-----------
------6---6---6--------6------6-----6----------------------------
----6---6-------6----6--------7----------------------------------
--4---------------4---------7---7--------------------------------
--------------------------5--------------------------------------
Veo mongos que se arrastran al ladrar
Danny(puente)
----------------------|------------------------------
----------------------|-------------------------------
----------------------|----------------13/11-11-------
-6v-/7v-4/6/4?-6/4-4--|--6v/7v-6/4-4v-----------------
----------------------|-------------------------------
----------------------|-------------------------------
Coro (diego)
----------------------------------------------------- x4
-----------------------------------------------------
--7-7-7-7-7-7-7-7-7-7-7-7-7-7-9-9-9-9-9-9-9-9-9-9-9
--8-8-8-8-8-8-8-8-8-8-8-8-8-8-1010101010101010101010
--8-8-8-8-8-8-8-8-8-8-8-8-8-8-1010101010101010101010
--6-6-6-6-6-6-6-6-6-6-6-6-6-6-8-8-8-8-8-8-8-8-8-8-8-8
  Cuentame tu vida cuentamela toda
--danny---------------------------------------------- x4
-----------------------------------------------------
--/5v--------------------------7/v-------------------
-----------------------------------------------------
-----------------------------------------------------
-----------------------------------------------------
Danny |-----pm---------------------
-----------------------------------------------------
-----------------------------------------------------
------6-----6---------6----9-9-7-6-----------------x4
--7-9---7-9---x-x-7-9---7----------------------------
-----------------------------------------------------
-----------------------------------------------------
Danny bajo el solo
a--8-8-8-8-8-8-8-8-8-8-8-8-8-8-8-101010101010101010101010101010
e--6-6-6-6-6-6-6-6-6-6-6-6-6-6-6-8-8-8-8-8-8-8-8-8-8-8-8-8-8-8
Solo diego
---------------------------------5/3-----------------
--3br(4)-----3br(5)------------------3-1-1-----------
---------3-5--------5-3-2hb(3)2---------3--2-3-0-2---
---------------------------------------------------3-
-----------------------------------------------------
-----------------------------------------------------

                               X4
--12br(13)----10----12br(13)---|-------------------13-12|------
-----------10----10---------10-|----10-11-10-13-10------|-5-3-2
-------------------------------|-12---------------------|------
-------------------------------|------------------------|------
-------------------------------|------------------------|------
-------------------------------|------------------------|------
Se repite el coro y acaba con el intro
Suggest correction
Give kudos to tab author, rate the tab!
1 2 3 4 5
comments
print report bad tab
guest
Wanna post a correction for this tab? Suggest correction