Oops, an error
Loading. Please wait.

Dime De Un Amor Que No Ha Sufrido Bass Tab

version 1
version 1

Whole song

22 views 1 this week
no commentswrite comment
1 2 3 4 5
3 more votes to show rating
add to favorites
launch autoscroll
font size
0
reset
guitar tuner
Autoscroll
slow
fast
+/-
esc
set tempo
stop
Help us to improve Ultimate-Guitar.com Take our survey!
×
Intro

G|-----------------------------| 
D|-----------------------------| 
A|--3--3--3--3--3--3--3--3--3--| 
E|-----------------------------| 


(aqui entra la bateria)
G|-------------------------------| 
D|-------------3-5---------------| 
A|--3-3--3-3-3-----3-3--3-3------|X 2 
E|---------------------------5-3-|


hay una forma q no es humana
G|-------------------------------| 
D|----------------------------3-5| 
A|-3-3--3-3-3-3-3--3-3--3-3-3----| 
E|-------------------------------|


q te destruye y te vuelve a construir
G|-----------------------------| 
D|-----------------------------| 
A|-3-3--3-3-3-3-3--5~---5~-----| 
E|-----------------------------|

para q luego te vuelvas a romper
G|-----------------------------| 
D|---------------3~------------| 
A|------6~---------------------| 
E|-----------------------------|


G|----------------| 
D|------------3-5-| 
A|-3-3--3-3-3-----| 
E|----------------|

amorfa vuelve tu creencia
G|-------------------------------| 
D|----------------------------3-5| 
A|-3-3--3-3-3-3-3--3-3--3-3-3----| 
E|-------------------------------|

desequilibra la   moral y al redentor
G|-----------------------------| 
D|-----------------------------| 
A|-3-3--3-3-3-3-3--5~---5~-----| 
E|-----------------------------|

lo vuelve loco, lo crucifica en un altar
G|-----------------------------| 
D|--------------------3~-------| 
A|---------6~------------------| 
E|-----------------------------|

              dime de un amor q 
G|-----------------------------| 
D|-----------------------------| 
A|-3-3--3-3-3---5--------4-----| 
E|-----------------------------|
  no ha sufrido            dime
G|-----------------------------| 
D|--------------------3-5------| 
A|---------3-3--3-3-3-------5--| 
E|-----------------------------|

  de un amor q no ha sufrido
G|-------------------------------| 
D|-------------------------------| 
A|-------4------------3-3-3-3----| 
E|----------------------------5-3|

(la parte del solo el bajo hace 
puro C)

G|-----------------------------| 
D|-----------------------------|
A|--3-3-3-3-3-3-3-3-3-3-3-3-3--| 
E|-----------------------------|

(hace una variaciò)

G|-------------------------| 
D|------------3-5----------| 
A|-3-3--3-3-3-------5~--4~-|X2 
E|-------------------------|

(Parte de bateria)

(bateria y bajo)
G|--------------------------------| 
D|------------0-1-------------3-1-| 
A|-3-3--3-3-3------3-3--3-3-3-----|X2 
E|--------------------------------|


G|-------------------------------| 
D|-------------3-5---------------| 
A|--3-3--3-3-3-----3-3--3-3------|X 2 
E|---------------------------5-3-|


hay una forma q no es humana
G|-------------------------------| 
D|----------------------------3-5| 
A|-3-3--3-3-3-3-3--3-3--3-3-3----| 
E|-------------------------------|

y sin embargo es tan hermosa y es tan 
G|-----------------------------| 
D|-----------------------------| 
A|-3-3--3-3-3-3-3--------5~----| 
E|-----------------------------|

cruel, no la invoques es mas astuta
G|-----------------------------| 
D|---------------------------3~| 
A|--------------6~-------------| 
E|-----------------------------|
q tu ser

                dime de un amor q 
G|-----------------------------| 
D|------------3-5--------------| 
A|-3-3--3-3-3-----5------4-----| 
E|-----------------------------|
  no ha sufrido            dime
G|-----------------------------| 
D|--------------------3-5------| 
A|---------3-3--3-3-3-------5--| 
E|-----------------------------|

  de un amor q no ha sufrido
G|-------------------------------| 
D|----------------------------3-5| 
A|-------4------------3-3-3-3----| 
E|-------------------------------|

  dime de un amor q no ha sufrido
G|-------------------------------| 
D|-------------------------------| 
A|--5--------4-------------3-3-3-| 
E|-------------------------------|

         dime de un amor q no ha 
G|-------------------------------| 
D|---3-5-------5--------3--------| 
A|-3------5--5---5---4-----5-4---| 
E|-------------------------------|

   sufrido
G|-----------| 
D|-----------| 
A|-3~~~----3-| 
E|-----------|


eso es todo, espero q les guste. hagan
variaciones sobre esta tab para q se 
oigan mas llena
surte, dudas, anecdotas, chistes o lo
q sea a mi mail jcd_007@

Por favor si van a usar este archivo, en algún 
otro lugar, por favor avisenme, no sean 
*****gandallas******* jajaja
Suggest correction
Give kudos to tab author, rate the tab!
1 2 3 4 5
comments
print report bad tab
guest
You may want to rate the tab now too:
select rating
Wanna post a correction for this tab? Suggest correction