Oops, an error
Loading. Please wait.

Dime De Un Amor Que No Ha Sufrido Tab

version 1
version 1

Whole song

31 views 1 this week
no commentswrite comment
1 2 3 4 5
3 more votes to show rating
add to favorites
×
Save as Personal and add changes to this tab that will be seen only by you. Learn more ›
×
You can save this tab as Personal to edit and correct it or add notes. All changes will be seen only by you. Learn more »
save as personal
new!
launch autoscroll
font size
0
reset
how to read this tab
guitar tuner
Autoscroll
slow
fast
+/-
esc
set tempo
stop
Esta es una rola de las que mas me gustan del cd
y no es tan dificil de tocar

Disfrutenla!


El intro y parte de la estrofa  se va con esto (esta facilisimo):

A este le vamos a llamar (intro)

e|-------------------------------------------
B|-------------------------------------------
G|-------------------------------------------
D|------1-----1-----1-------1-----0--1-------
A|---3-----3-----3-----3~------3-------------
E|-------------------------------------------


e|-------------------------------------------
B|-------------------------------------------
G|-------------------------------------------
D|------1-----1-----1-------1-----3--1-------
A|---3-----3-----3-----3~------3-------------
E|-------------------------------------------


                     
cuando dice: 
----------
                       Dm
'que te destruye y te vuelve a construir
          D5       F5          Cm
para que luego te vuelvas a romper'


(puedes tocar el acorde completo, se escucha chido pero se 
escucha mejor si tocas solo 2 o 3 cuerdas, yo lo toco con 3 cuerdas)

    Dm      D5      F5      
e|------ ------- -------- 
B|------ ------- -------- 
G|---7-- ---8--- ---10--- 
D|---7-- ---8--- ---10--- 
A|---5-- ---6--- ---8---- 
E|------ ------- -------- 


cuando va a cambiar el acorde en 'romper' a Cm en lugar de eso
va el 'intro' 

Despues sigue la segunda estrofa igual que la primera:

--------
Cm
Amorfa vuelve tu creencia
                  Dm
desequilibra la moral y al redentor
          D#5           F5           Cm
lo vuelve loco, lo crucifica en un altar 

--------

cuando acaba ésta en lugar de Cm al ultimo igual que la anterior
va el 'intro' y despue sigue el coro

--------
D5         C#5               C5
Dime de un amor que no ha sufrido (x2)


    D5      C#5      C5 
e|------- ------- ------- 
B|------- ------- -------
G|---8--- ---6--- ---5---
D|---8--- ---6--- ---5---
A|---6--- ---4--- ---3---
E|------- ------- ------- 


y asi se va toda la rola.
Suggest correction
Give kudos to tab author, rate the tab!
1 2 3 4 5
comments
print report bad tab
guest
Wanna post a correction for this tab? Suggest correction